Табулатура Ария | Колизей гитара табулатуры уроки тексты песен Ария текст lyrics песня аккорды песни ноты нота электрогитара струна  
   А Б В Г Д Е Ж З И К Л М Н О П Р С Т У Ф Х Ч Ш Ы Э Ю Я       Разные песни
1-9 A B C D E F G H I J K L M N O P Q R S T U V W Y Z      Все исполнители in english

    



группа Ария, Табулатура песни Колизей

Работа в Европе для граждан РФ, Украины, СНГ

  • минимальная зарплата $500.
  • виза и контракт на полгода, возможно продление
  • проживание оплачивает работодатель
  • нужен только загранпаспорт
  • оформление 190 €
  • данное предложение - отличная возможность эмигрировать в Европу и закрепиться здесь навсегда.

  • Мы свяжемся с Вами по WhatsApp или Viber и ответим на любые вопросы.
    на нашем сайте можно почитать подробнее »

    Группа: Ария - другие аккорды (629),   о группе (7 статей),   диски (18),   фотографии (92)
    Табулатура песни: Колизей
    Просмотров: 6155
    Прислал: KoLy@N (binc@nc.ru)




        
    ||-----------|------------|------------|---------||
    ||o----------|------------|------------|--------o||
    ||-----------|------------|------------|---------||
    ||--9--------|-(9)--------|-(9)--------|-(9)-----||
    ||o-9--------|-(9)--------|-(9)--------|-(9)----o||
    ||--7--------|-(7)--------|-(7)--------|-(7)-----||
      W                 +W                  W                 +W
    |-----------------|-------------------|-----------------|-------------------|
    |-----------------|-------------------|-----------------|-------------------|
    |-----------------|-------------------|-----------------|-------------------|
    |-9---------------|-(9)---------------|-3---------------|-(3)---------------|
    |-9---------------|-(9)---------------|-3---------------|-(3)---------------|
    |-7---------------|-(7)---------------|-1---------------|-(1)---------------|
    |
    | Gtr II
    | E E E E E E E E    E  E E E E E E E   E E E E E E E E    E  E E E E E E E
    |-----------------|-------------------|-----------------|-------------------|
    |-----7-----7-----|--7------7-----7---|-----6-----6-----|--6------6-----6---|
    |---4-----4-----4-|-------4-----4---4-|---5-----5-----5-|-------5-----5---5-|
    |-4-----4-----4---|-----4-----4-------|-3-----3-----3---|-----3-----3-------|
    |-----------------|-------------------|-----------------|-------------------|
    |-----------------|-------------------|-----------------|-------------------|
      W                 +W                  W                 +W
    |-----------------|-------------------|-----------------|-------------------|
    |-----------------|-------------------|-----------------|-------------------|
    |-----------------|-------------------|-----------------|-------------------|
    |-9---------------|-(9)---------------|-5---------------|-(5)---------------|
    |-9---------------|-(9)---------------|-5---------------|-(5)---------------|
    |-7---------------|-(7)---------------|-3---------------|-(3)---------------|
    |
    | E E E E E E E E    E  E E E E E E E   E E E E E E E E    E  E E E E E E E
    |-----------------|-------------------|-----------------|-------------------|
    |-----7-----7-----|--7------7-----7---|-----8-----8-----|--8------8-----8---|
    |---4-----4-----4-|-------4-----4---4-|---7-----7-----7-|-------7-----7---7-|
    |-4-----4-----4---|-----4-----4-------|-5-----5-----5---|-----5-----5-------|
    |-----------------|-------------------|-----------------|-------------------|
    |-----------------|-------------------|-----------------|-------------------|
      S S S S E  S S +S  S E  Q      S S S S E  S S +S  S E   Q
    |------------------------------|-------------------------------|
    |------------------------------|-------------------------------|
    |------------------------------|-------------------------------|
    |-9-9-9-9-9--9-9-(9)-9-9-------|-9-9-9-9-9--9-9-(9)-9-9--------|
    |-9-9-9-9-9--9-9-(9)-9-9-------|-9-9-9-9-9--9-9-(9)-9-9--------|
    |-7-7-7-7-7--7-7-(7)-7-7-------|-7-7-7-7-7--7-7-(7)-7-7--------|
       Verse
        $
        Gtrs I, II
        S S S S E  S S +S  S E  S S S S   S  S S S E  S S +S  S E  S S S S
    ||----------------------------------|-----------------------------------|
    ||o---------------------------------|-----------------------------------|
    ||----------------------------------|-----------------------------------|
    ||----------------------------------|-----------------------------------|
    ||o-9-9-9-9-9--9-9-(9)-9-9--9-9-9-9-|-7-/9-9-9-9--9-9-(9)-9-9--9-9-9-9--|
    ||--7-7-7-7-7--7-7-(7)-7-7--7-7-7-7-|-5-/7-7-7-7--7-7-(7)-7-7--7-7-7-7--|
      S S S S E  S S +S  S E  S S S S   S  S S S E  S S +S  S E  S S S S
    |---------------------------------|----------------------------------|
    |---------------------------------|----------------------------------|
    |---------------------------------|----------------------------------|
    |---------------------------------|----------------------------------|
    |-7-7-7-7-7--7-7-(7)-7-7--7-7-7-7-|-6-/7-7-7-7--7-7-(7)-7-7--7-7-7-7-|
    |-5-5-5-5-5--5-5-(5)-5-5--5-5-5-5-|-4-/5-5-5-5--5-5-(5)-5-5--5-5-5-5-|
      S S S S E  S S +S  S E  S S S S   S  S S S E  S S +S  S E  S S S S
    |---------------------------------|----------------------------------|
    |---------------------------------|----------------------------------|
    |---------------------------------|----------------------------------|
    |---------------------------------|----------------------------------|
    |-6-6-6-6-6--6-6-(6)-6-6--6-6-6-6-|-5-/6-6-6-6--6-6-(6)-6-6--6-6-6-6-|
    |-4-4-4-4-4--4-4-(4)-4-4--4-4-4-4-|-3-/4-4-4-4--4-4-(4)-4-4--4-4-4-4-|
      S S S S E  S S +S  S E  S S S S
    |---------------------------------|
    |---------------------------------|
    |---------------------------------|
    |---------------------------------|
    |-5-5-5-5-5--5-5-(5)-5-5--5-5-5-5-|
    |-3-3-3-3-3--3-3-(3)-3-3--3-3-3-3-|
      1.                                  2.
      S  S S S E  S S +S  S E    Q        S S S S E  S S +S  S E  S S S S
    |----------------------------------||---------------------------------|
    |---------------------------------o||---------------------------------|
    |----------------------------------||---------------------------------|
    |--------------------------/10-----||---------------------------------|
    |-4-/5-5-5-5--5-5-(5)-5-5--/10----o||-4-4-4-4-4--4-4-(4)-4-4--4-4-4-4-|
    |-2-/3-3-3-3--3-3-(3)-3-3---/8-----||-2-2-2-2-2--2-2-(2)-2-2--2-2-2-2-|
     Pre-Chorus
      E5      D5  E5     B5  A5    E/Ab
      Gtr I
      H..     E   W      H   H     W
      |       |   |      |   |     |
      /       /   /      /   /     /
      Gtr II
      H..     E   W      H   H     E. E. E E. E. E
    |-----------|------|---------|-4-------4-------|
    |-----------|------|---------|----5-------5----|
    |-9-------7-|-9----|---------|-------4-------4-|
    |-9-------7-|-9----|-9---7---|-----------------|
    |-7-------5-|-7----|-9---7---|-----------------|
    |-----------|------|-7---5---|-----------------|
                           G5
      +W                   W                   W
       |                   |
       /                   /
       E. E. E E. E. E     E. E. E E. E. E     S S S S S S S S S S S S S S S S
    |--4-------4---------|-3-------3---------|----------------------------------|
    |-----5-------5------|----3-------3------|----------------------------------|
    |--------4-------4---|-------4-------4---|----------------------------------|
    |--------------------|-------------------|----------------------------------|
    |--------------------|-------------------|----------------------------------|
    |--------------------|-------------------|-3p2p1p0-3p2p1p0-3p2p1p0-3p2p1p0--|
       Chorus
        $$
        Gtrs I, II
                   PM|                 PM|                 PM|
        Q.   E +E  S S Q    Q.   E +E  S S Q    Q.   E +E  S S Q
    ||--------------------|-------------------|--------------------|
    ||o-------------------|-------------------|--------------------|
    ||--4----4-(4)-----4--|-7----7-(7)-----7--|-9----9-(9)-----9---|
    ||--4----4-(4)-4-4-4--|-7----7-(7)-7-7-7--|-9----9-(9)-9-9-9---|
    ||o-2----2-(2)-2-2-2--|-5----5-(5)-5-5-5--|-7----7-(7)-7-7-7---|
    ||--------------------|-------------------|--------------------|
                            PM|                 PM|
      W          Q.   E +E  S S Q    Q.   E +E  S S Q
    |----------|-------------------|--------------------|
    |----------|-------------------|--------------------|
    |-9--------|-4----4-(4)-----4--|-7----7-(7)-----7---|
    |-9--------|-4----4-(4)-4-4-4--|-7----7-(7)-7-7-7---|
    |-7--------|-2----2-(2)-2-2-2--|-5----5-(5)-5-5-5---|
    |----------|-------------------|--------------------|
                                  To CoTo Dbl. Coda
                 PM|        PM|      PM|
      Q.   E +E  S S Q    E S S Q  E S S Q
    |-------------------|-----------------------------||
    |-------------------|----------------------------o||
    |-9----9-(9)-----9--|-----------------------------||
    |-9----9-(9)-9-9-9--|-5-----5--7-----7------------||
    |-7----7-(7)-7-7-7--|-5-5-5-5--7-7-7-7-----------o||
    |-------------------|-3-3-3-3--5-5-5-5------------||
      Gtr I
      W                 +W                  W                 +W
    |-----------------|-------------------|-----------------|-------------------|
    |-----------------|-------------------|-----------------|-------------------|
    |-----------------|-------------------|-----------------|-------------------|
    |-9---------------|-(9)---------------|-3---------------|-(3)---------------|
    |-9---------------|-(9)---------------|-3---------------|-(3)---------------|
    |-7---------------|-(7)---------------|-1---------------|-(1)---------------|
    |
    | Gtr II
    | E E E E E E E E    E  E E E E E E E   E E E E E E E E    E  E E E E E E E
    |-----------------|-------------------|-----------------|-------------------|
    |-----7-----7-----|--7------7-----7---|-----6-----6-----|--6------6-----6---|
    |---4-----4-----4-|-------4-----4---4-|---5-----5-----5-|-------5-----5---5-|
    |-4-----4-----4---|-----4-----4-------|-3-----3-----3---|-----3-----3-------|
    |-----------------|-------------------|-----------------|-------------------|
    |-----------------|-------------------|-----------------|-------------------|
                                                                  D.S. al Coda
      W                 +W                  W                 +W
    |-----------------|-------------------|-----------------|-------------------||
    |-----------------|-------------------|-----------------|-------------------||
    |-----------------|-------------------|-----------------|-------------------||
    |-9---------------|-(9)---------------|-5---------------|-(5)---------------||
    |-9---------------|-(9)---------------|-5---------------|-(5)---------------||
    |-7---------------|-(7)---------------|-3---------------|-(3)---------------||
    |
    | E E E E E E E E    E  E E E E E E E   E E E E E E E E    E  E E E E E E E
    |-----------------|-------------------|-----------------|-------------------||
    |-----7-----7-----|--7------7-----7---|-----8-----8-----|--8------8-----8---||
    |---4-----4-----4-|-------4-----4---4-|---7-----7-----7-|-------7-----7---7-||
    |-4-----4-----4---|-----4-----4-------|-5-----5-----5---|-----5-----5-------||
    |-----------------|-------------------|-----------------|-------------------||
    |-----------------|-------------------|-----------------|-------------------||
      &
      >
      W           +W            +W           +W
    |-----------|-------------|------------|--------|
    |-----------|-------------|------------|--------|
    |-----------|-------------|------------|--------|
    |-9---------|-(9)---------|-(9)--------|-(9)----|
    |-9---------|-(9)---------|-(9)--------|-(9)----|
    |-7---------|-(7)---------|-(7)--------|-(7)----|
       Interlude
        Gtr III
        E E E E E  Q.      +W           E E E E E  Q.      +W
    ||------7-----------|-------------|-----7-----------|---------|
    ||o-----------10----|-(10)--------|-----------10----|-(10)----|
    ||----7-----7-------|-------------|---7-----7-------|---------|
    ||--9-----9---------|-------------|-9-----9---------|---------|
    ||o-----------------|-------------|-----------------|---------|
    ||------------------|-------------|-----------------|---------|
                                    1.
      E E  E E E Q.     +W           E E E E E  Q.
    |-----------------|------------|-----7---------|
    |-----10-----8----|-(8)--------|-----------10--|
    |---7------7------|------------|---7-----7-----|
    |-9------9--------|------------|-9-----9-------|
    |-----------------|------------|---------------|
    |-----------------|------------|---------------|
                      2.
       +W             E E E E E  Q.      +W
    |--------------||-----7-----------|------------------------|
    |-(10)--------o||-----------10----|-(10)-------------------|
    |--------------||---7-----7-------|------------------------|
    |--------------||-9-----9---------|------------------------|
    |-------------o||-----------------|------------------------|
    |--------------||-----------------|------------------------|
    |
    | Gtr IV
    |   W             W                   H      Q       +Q
    |--------------||-----------------|---------14------(14)---|
    |-------------o||-----------------|---------17b19===(17)r--|
    |--------------||-----------------|------------------------|
    |--------------||-----------------|------------------------|
    |-------------o||-----------------|------------------------|
    |--------------||-----------------|------------------------|
     Guitar Solo
      Gtr IV
                   ~~~~~~~~~~~~~~~~~~~~~~~
       S  S  S  S  H.
    |-12h14p12---------------------------|
    |----------15-14---------------------|
    |------------------------------------|
    |------------------------------------|
    |------------------------------------|
    |------------------------------------|
    |
    | Gtrs I, II
    |        PM|       PM|    PM|    PM|
    |  E     S  S  E   S S E  S S E  S S
    |------------------------------------|
    |------------------------------------|
    |------------------------------------|
    |--9-----------9-------9------9------|
    |--7-----7--7--7---7-7-7--7-7-7--7-7-|
    |------------------------------------|
     ~~~~~~
       +E    S  S  S  S  S  S  T  T  T  T  S  S  S  S  S  S
    |-------------------12-14-12h14p12-----------------------|
    |-(14)-----12-14-15----------------15p14-12----12-14-15--|
    |-------14----------------------------------14-----------|
    |--------------------------------------------------------|
    |--------------------------------------------------------|
    |--------------------------------------------------------|
    |
    |        PM|         PM|               PM|         PM|
    |   E    S  S  E     S  S  E           S  S  E     S  S
    |--------------------------------------------------------|
    |--------------------------------------------------------|
    |--------------------------------------------------------|
    |---9----------9-----------9-----------------9-----------|
    |---7----7--7--7-----7--7--7-----------7--7--7-----7--7--|
    |--------------------------------------------------------|
       TP     TP  TP   TP   TP     TP  TP   TP
       E.     S  +E    E    E.     S  +E    E
    |-14-----12-(12)----------------------------|
    |-----------------15------------------------|
    |----------------------11-------------------|
    |-----------------------------14-(14)--12---|
    |-------------------------------------------|
    |-------------------------------------------|
    |
    |      PM|         PM|      PM|         PM|
    |  E   S  S   E    S S  E   S  S   E    S S
    |-------------------------------------------|
    |-------------------------------------------|
    |-------------------------------------------|
    |-------------------------------------------|
    |--9----------9---------9----------9--------|
    |--7---7--7---7----7-7--7---7--7---7----7-7-|
      TP     TP  TP
      E.     S  +E     E      +H
    |------------------------------------------|
    |------------------------------------------|
    |------------------------------------------|
    |------------------------------------------|
    |-9----------------------------------------|
    |-------12-(12)--[10]---([10])-------------|
    |
    |     PM|          PM-|         PM|    PM|
    | E   S  S   E     S  S    E    S S E  S S
    |------------------------------------------|
    |------------------------------------------|
    |------------------------------------------|
    |------------------------------------------|
    |-9----------9-------------9--------9------|
    |-7---7--7---7-----7--7----7----7-7-7--7-7-|
      S S S S S S T T T T S S S S S S S S
    |-------------------------------------|
    |-------------------------------------|
    
    Узнай ВСЕ о своем друге в ВК или FB
    |---------------7-----------7-9-7---7-| |-----7-------7---9-7---7-9-------9---| |-7-9---9-7-9---------9---------------| |-------------------------------------| | | PM| PM--| PM| PM| | E S S E S S E S S E S S |-------------------------------------| |-------------------------------------| |-------------------------------------| |-7-------7-----------7-------7-------| |-5---5-5-5---5---5---5---5-5-5---5-5-| |-------------------------------------| |-3--| |-3-| |-3--| |-3--| S S S S S S S S S S S S S S S S S S S S |----------------------7h10p7---------------------| |---7-10-7---7h10-10p7--------10p7-10p7-----------| |-9--------9----------------------------9p7-9p7---| |-------------------------------------------------| |-------------------------------------------------| |-------------------------------------------------| | | PM| PM| PM| PM| | E S S E S S E S S E S S |-------------------------------------------------| |-------------------------------------------------| |-------------------------------------------------| |-7--------7--------------7-------------7---------| |-5----5-5-5-------5-5----5------5--5---5---5-5---| |-------------------------------------------------| \1.5 ~ W +E E H +Q |-----------------------------|--------------------------------------| |-----------------------------|--------------------------------------| |-9---------------------------|-(9)--7---[6]---------------(6)\------| |-----------------------------|--------------------------------------| |-----------------------------|--------------------------------------| |-----------------------------|--------------------------------------| | | PM| PM| PM| PM| PM| PM| PM| PM| | E S S E S S E S S E S S E S S E S S E S S E S S |-----------------------------|--------------------------------------| |-----------------------------|--------------------------------------| |-----------------------------|--------------------------------------| |-----------------------------|--------------------------------------| |-7------7------7------7------|--7--------7---------7-------7--------| |-5--5-5-5--5-5-5--5-5-5--5-5-|--5---5-5--5-----5-5-5--5-5--5----5-5-| S S S S E S S S S Q. S S S S E S S S S Q E |--------------------------------|---------------------------------| |--------------------------------|---------------------------------| |--------------------------------|-9h11p9p7-9--9h11p9p7-9------7---| |-2h4p2p0-2--2h4p2p0-2-----------|---------------------------------| |--------------------------------|---------------------------------| |--------------------------------|---------------------------------| | | PM| PM| PM-| PM| PM| PM| PM| PM| | E S S E S S E S S E S S E S S E S S E S S E S S |--------------------------------|---------------------------------| |--------------------------------|---------------------------------| |--------------------------------|---------------------------------| |-9-------9------9--------9------|-9--------9-------9-------9------| |-7---7-7-7--7-7-7---7--7-7--7-7-|-7----7-7-7--7--7-7---7-7-7--7-7-| |--------------------------------|---------------------------------| Q Q Q Q H Q Q |---------------10------12------|-12b14r============12------14------| |--------7----------------------|-----------------------------------| |-7-----------------------------|-----------------------------------| |-------------------------------|-----------------------------------| |-------------------------------|-----------------------------------| |-------------------------------|-----------------------------------| | | PM| PM| PM| PM| PM| PM| PM| PM| | E S S E S S E S S E S S E S S E S S E S S E S S |-------------------------------|-----------------------------------| |-------------------------------|-----------------------------------| |-------------------------------|-----------------------------------| |-------------------------------|-----------------------------------| |-9------9-------9-------9------|--9---------9-------9-------9------| |-7--7-7-7--7-7--7--7-7--7--7-7-|--7-----7-7-7--7-7--7--7-7--7--7-7-| |---3---| |---3----| |---3---| |---3----| S S S S S S S S S S S S S S S S S S S S |-17p==14--------14---19p==14--------14---17p=14------19p=14-------17p=14------19p=14-------| |-----------17------------------17----------------17-----------17----------17-----------17--| |-------------------------------------------------------------------------------------------| |-------------------------------------------------------------------------------------------| |-------------------------------------------------------------------------------------------| |-------------------------------------------------------------------------------------------| | | PM--| PM--| PM----| PM----| | E S S E S S E S S E S S |-------------------------------------------------------------------------------------------| |-------------------------------------------------------------------------------------------| |-------------------------------------------------------------------------------------------| |--7-------------------7-------------------7------------------------7-----------------------| |--5---------5----5----5---------5----5----5-----------5-----5------5-----------5-----5-----| |-------------------------------------------------------------------------------------------| |---3---| |---3----| |---3---| |---3----| |---3---| |---3----| |---3---| |---3----| S S S S S S S S S S S S S S S S S S S S S S S S |--17p=14------19p=14-------17p=14------19p=14-------17p=14------19p=14-------17p=14------19p=14---------| |----------17-----------17----------17-----------17----------17-----------17----------17-----------17----| |--------------------------------------------------------------------------------------------------------| |--------------------------------------------------------------------------------------------------------| |--------------------------------------------------------------------------------------------------------| |--------------------------------------------------------------------------------------------------------| | | PM----| PM----| PM----| PM----| | E S S E S S E S S E S S |--------------------------------------------------------------------------------------------------------| |--------------------------------------------------------------------------------------------------------| |--------------------------------------------------------------------------------------------------------| |---7------------------------7------------------------7------------------------7-------------------------| |---5-----------5-----5------5-----------5-----5------5-----------5-----5------5-----------5-----5-------| |--------------------------------------------------------------------------------------------------------| ~~~~~ |--3--| E S S S E E +Q. E |-15--14h15p14p12------------------------------| |------------------15b17====(15)r---------15---| |----------------------------------------------| |----------------------------------------------| |----------------------------------------------| |----------------------------------------------| | | PM| PM----| PM| PM| | E S S E S S E S S E S S |----------------------------------------------| |----------------------------------------------| |----------------------------------------------| |----------------------------------------------| |--7------------7-------------7--------7-------| |--5---5--5-----5---5-----5---5----5-5-5---5-5-| \2 ~~ H +H |---------------------------------| |-14-------------(14)-------------| |---------------------------------| |---------------------------------| |---------------------------------| |---------------------------------| | | PM| PM| PM| PM| | E S S E S S E S S E S S |---------------------------------| |---------------------------------| |---------------------------------| |---------------------------------| |--7------7--------7-------7------| |--5--5-5-5--5-5---5---5-5-5--5-5-| W +W +W +H. +Q |---------------|-----------------|-----------------|-----------------------| |-12tr15--------|-(12tr15)--------|-(12tr15)--------|-(12tr15)------(12)\---| |---------------|-----------------|-----------------|-----------------------| |---------------|-----------------|-----------------|-----------------------| |---------------|-----------------|-----------------|-----------------------| |---------------|-----------------|-----------------|-----------------------| | | Gtr II | W +W W +H. +Q |---------------|-----------------|-----------------|-----------------------| |---------------|-----------------|-----------------|-----------------------| |---------------|-----------------|---7tr6----------|--(7tr6)--------(7)\---| |---------------|-----------------|-----------------|-----------------------| |--9------------|--(9)------------|-----------------|-----------------------| |--7------------|--(7)------------|-----------------|-----------------------| | | Gtr I | W +W +W +W |---------------|-----------------|-----------------|-----------------------| |---------------|-----------------|-----------------|-----------------------| |---------------|-----------------|-----------------|-----------------------| |---------------|-----------------|-----------------|-----------------------| |--9------------|--(9)------------|--(9)------------|--(9)------------------| |--7------------|--(7)------------|--(7)------------|--(7)------------------| Bridge Wx8 |--------| |--------| |--------| |--------| |--------| |--------| Gtrs I, II Q Q E Q E Q Q E Q E Q Q E Q E Q Q E Q E ||---------------|--------------|--------------|---------------|| ||o--------------|--------------|--------------|--------------o|| ||---------------|--------------|--------------|---------------|| ||-----4----2----|----4----2----|--------------|---------------|| ||o-2-----2----5-|-2-----2----5-|----4----2----|----4----2----o|| ||---------------|--------------|-2-----2----5-|-2-----2----5--|| H.. E W |-------------|-------| |-------------|-------| |-9--------11-|-12----| |-9--------11-|-12----| |-7---------9-|-10----| |-------------|-------| S E S E S S +S S E E E S E S E S S +S S E E E |-----------------------------|-----------------------------| |-----------------------------|-----------------------------| |-----------------------------|-----------------------------| |-----------------------------|-----------------------------| |------------------------5----|------------------------5----| |-5h7--5h7--5h7-(7)-5h7-----7-|-5h7--5h7--5h7-(7)-5h7-----7-| H.. E W |------------|------| |------------|------| |-9--------7-|-5----| |-9--------7-|-5----| |-7--------5-|-3----| |------------|------| D.S.S. al Dbl. Coda S E S E S S +S S E E E W |------------------------------|------------------|| |------------------------------|------------------|| |------------------------------|------------------|| |------------------------------|------------------|| |------------------------3-----|-4----------------|| |-3h5--3h5--3h5-(5)-3h5-----5--|-2----------------|| Outro && B5 D5 E5 G5X Gtr I W W W W | | | | / / / / Gtr II Q Q E Q E Q Q E Q E Q Q E Q E H H |--------------|--------------|--------------|-----------| |--------------|--------------|--------------|-----------| |--------------|--------------|--------------|-----------| |----4----2----|----4----2----|----4----2----|-----------| |-2-----2----5-|-2-----2----5-|-2-----2----5-|-2----4----| |--------------|--------------|--------------|-----------| B5 D5 E5 G5 A5 W W W H H | | | | | / / / / / Q Q E Q E Q Q E Q E Q Q E Q E H H |--------------|--------------|--------------|-----------| |--------------|--------------|--------------|-----------| |--------------|--------------|--------------|-----------| |----4----2----|----4----2----|----4----2----|-----------| |-2-----2----5-|-2-----2----5-|-2-----2----5-|-2----4----| |--------------|--------------|--------------|-----------| B5 D5 E5 G5X W W W W | | | | / / / / Q Q E Q E Q Q E Q E Q Q E Q E H H |--------------|--------------|--------------|-----------| |--------------|--------------|--------------|-----------| |--------------|--------------|--------------|-----------| |----4----2----|----4----2----|----4----2----|-----------| |-2-----2----5-|-2-----2----5-|-2-----2----5-|-2----4----| |--------------|--------------|--------------|-----------| B5 D5 E5 G5 A5 W W W H H | | | | | / / / / / Q Q E Q E Q Q E Q E Q Q E Q E H H |--------------|--------------|--------------|-----------| |--------------|--------------|--------------|-----------| |--------------|--------------|--------------|-----------| |----4----2----|----4----2----|----4----2----|-----------| |-2-----2----5-|-2-----2----5-|-2-----2----5-|-2----4----| |--------------|--------------|--------------|-----------| S S S S E S S +S S E Q S S S S E S S +S S E Q |------------------------------|-------------------------------*| |------------------------------|-------------------------------*| |------------------------------|-------------------------------*| |-9-9-9-9-9--9-9-(9)-9-9-------|-9-9-9-9-9--9-9-(9)-9-9--------*| |-9-9-9-9-9--9-9-(9)-9-9-------|-9-9-9-9-9--9-9-(9)-9-9--------*| |-7-7-7-7-7--7-7-(7)-7-7-------|-7-7-7-7-7--7-7-(7)-7-7--------*| Duration Legend --------------- W - whole; H - half; Q - quarter; E - 8th; S - 16th; T - 32nd; X - 64th; a - acciaccatura + - note tied to previous; . - note dotted; .. - note double dotted

    найти лекарство
    список лекарств

    Остекление балконов с выносом

    Современное остекление балконов: технологии, материалы, советы

    okna-moskva77.ru








    О сайтеАккордыХит-парадПоискУроки ФорумыИщу песню
    ПрограммыСвежачок-сПодпискаСтатьи
    Яндекс.Метрика