Табулатура Ария | Герой асфальта  (3) гитара табулатуры уроки тексты песен Ария текст lyrics песня аккорды песни ноты нота электрогитара струна  
   А Б В Г Д Е Ж З И К Л М Н О П Р С Т У Ф Х Ч Ш Ы Э Ю Я       Разные песни
1-9 A B C D E F G H I J K L M N O P Q R S T U V W Y Z      Все исполнители in english

    



группа Ария, Табулатура песни Герой асфальта (3)

Продолжаем грести бабос на ботах в Telegram.
Только в этот раз есть вариант автоматизировать это дело, привлекая рефералов. Вы можете заработать если »

Группа: Ария - другие аккорды (629),   о группе (7 статей),   диски (18),   фотографии (92)
Табулатура песни: Герой асфальта (3)
Просмотров: 4105
Прислал: volonter (volonter3@yandex.ru)




    
 E||---------------------------------|---------------------------------|
    H||---------------------------------|---------------------------------|
    G||---------------------------------|---------------------------------|
    D||-------------------------7-------|---------------------------------|
    A||-9-------10------9-------5-------|-8-------------------------------|
    E||-7-------7-------7---------------|-6---6-6-6---6-6-6---6-6-6---6-6-|
                                              . . .   . . .   . . .   . .
    E|----------------------------------|---------------------------------||
    H|----------------------------------|---------------------------------||
    G|----------------------------------|---------------------------------||
    D|--------------------------7-------|-5-------------------------------||
    A|--9-------10------9-------5-------|-3-----------4-------------------||
    E|--7-------7-------7---------------|-------------2-------------------||
   
    E||---------------------------------|---------------------------------|
    H||---------------------------------|---------------------------------|
    G||---------------------------------|---------------------------------|
    D||---------------------------------|-----------------7-------8-------|
    A||-9-------10------9-------8-------|-9-------7-------7-------8-------|
    E||-----7-------7-------7-------7---|-----7-------7---5-------6--------                                                                
    E|----------------------------------|---------------------------------||
    H|----------------------------------|---------------------------------||
    G|----------------------------------|---------------------------------||
    D|----------------------------------|-----------------5-------7-------||
    A|--9-------10------9-------8-------|-9-------7-------5-------7-------||
    E|------7-------7-------7-------7---|-----7-------7---3-------5-------||
     
 

Продолжаем грести бабос на ботах в Telegram.
Только в этот раз есть вариант автоматизировать это дело, привлекая рефералов. Вы можете заработать если »

E|----------------------------------|---------------------------------| H|----------------------------------|---------------------------------| G|--7p0-----6---0---9p0-----7---6---|-7p0-----6---0---9p0-----7p0-----| D|----------.---.-----------.---.---|---------.---.-------------------| A|----------------------------------|---------------------------------| E|----------------------------------|---------------------------------| E|----------------------------------|---------------------------------| H|----------------------------------|---------------------------------| G|--9p0-----0---0---6p0-----0---0---|-4p0-----0---0---3p0-----0---0---| D|----------.---.-----------.---.---|---------.---.-----------.---.---| A|----------------------------------|---------------------------------| E|----------------------------------|---------------------------------| E|----------------------------------|---------------------------------| H|----------------------------------|---------------------------------| G|--9p0-----0---0---6p0-----0---0---|-3p0-----------------------------| D|----------.---.-----------.---.---|---------4---5-------------------| A|----------------------------------|---------5---6-------------------| E|----------------------------------|---------------------------------| E|---------------------------------|---------------------------------| H|---------------------------------|---------------------------------| G|-9-------------------------------|---------------------------------| D|-9-------------------------------|-----------------7---------------| A|-7---7-7-7---7-7-7---7-7-7---7-7-|-7---7---9---10-----10---9---10--| E|---------------------------------|---------------------------------| volonter3@yandex.ru

искать в аптеке
список лекарств






О сайтеАккордыХит-парадПоискУроки ФорумыИщу песню
ПрограммыСвежачок-сПодпискаСтатьи
Яндекс.Метрика