Табулатура Metallica | Sweet Amber гитара табулатуры уроки тексты песен Metallica текст lyrics песня аккорды песни ноты нота электрогитара струна  
   А Б В Г Д Е Ж З И К Л М Н О П Р С Т У Ф Х Ч Ш Ы Э Ю Я       Разные песни
1-9 A B C D E F G H I J K L M N O P Q R S T U V W Y Z      Все исполнители in english

    



группа Metallica, Табулатура песни Sweet Amber

Группа: Metallica - другие аккорды (225),   о группе (32 статей),   диски (11),   фотографии (49)
Табулатура песни: Sweet Amber
Просмотров: 2620
Подобрал: Кс-82




    
intro
D-----------------
A---------------6b
F--5--7----5h7----
C-----------------
G-----------------
C-----------------
D------------------
A------------------   
F----------------3b
C------------------xxx--xx--xxx--xx--xxx  
G--3-x-5-xx-3h5----xxx--xx--xxx--xx--xxx
C--3-x-5-xx-3h5----xxx--xx--xxx--xx--xxx
D---------------------------------------
A----------------6b---------------------
F--5-x-7-xx-5h7------------------------- 
C--5-x-7-xx-5h7----xxx--xx--xxx--xx--xxx
G------------------xxx--xx--xxx--xx--xxx
C------------------xxx--xx--xxx--xx--xxx
D---------
A---------
F---------
G--5--3--2   
C--5--3--2
Узнай ВСЕ о своем друге в ВК или FB
G--5--3--2 (ooooh and she holds my hand....) D-------------------------- A-------------------------- F-------------------------- C-------------------------- G--3p0--5p0--3p0--3h5-3h5-5 C--3p0--5p0--3p0--3h5-3h5-5 D----------------------------------- A----------------------------------- F----------------------------------- C----------------------------------- G--5---3--2--0--2-0-0-0--3h5-0-0-0-5 C--5---3--2--0--2-0-0-0--3h5-0-0-0-5 (than she holds..........how sweet does it get) D---------------------------------------------------- A---------------------------------------------------- F---------------------------------------------------- C--7-xxxx-7-xxxx-7-xxxx-9-5-9-xxxx-9-xxxx-9-xxxx-10-9 G--7-xxxx-7-xxxx-7-xxxx-9-5-9-xxxx-9-xxxx-9-xxxx-10-9 C----------------------------------------------------

лекарство в аптеке
список лекарств

Пошив мужского костюма на заказ

Продажа мужской одежды

atelie-natali.ru

Воздухонагреватели Volcano V25

воздухонагреватели Volcano V25

volcano-pro.ru

http://9797010.ru питомники елей туй

9797010.ru








О сайтеАккордыХит-парадПоискУроки ФорумыИщу песню
ПрограммыСвежачок-сПодпискаСтатьи
Яндекс.Метрика