Табулатура Metallica | St. Anger гитара табулатуры уроки тексты песен Metallica текст lyrics песня аккорды песни ноты нота электрогитара струна  
   А Б В Г Д Е Ж З И К Л М Н О П Р С Т У Ф Х Ч Ш Ы Э Ю Я       Разные песни
1-9 A B C D E F G H I J K L M N O P Q R S T U V W Y Z      Все исполнители in english

    



группа Metallica, Табулатура песни St. Anger

Группа: Metallica - другие аккорды (225),   о группе (32 статей),   диски (11),   фотографии (49)
Табулатура песни: St. Anger
Просмотров: 7364
Подобрал: Кс-82




    
Tuning: C G C F A D (SOAD's tuning)
Riff 1:
D|----------------------------------|
A|----------------------------------|
F|----------------------------------|
C|----------------------------------|
G|---------------------------3-3-3--|
C|-0-1-2-2-1-2-1-1-2-1-1-2-1--------|
Riff 1(b):
D|--------------------|
A|--------------------|
F|--------------------|
C|--------------------|
G|--------------------|
C|-0-1-2-2-1-2-1-1-2--|
                                                                              
Riff 2:
D|-----------------------------------|
A|-----------------------------------|
F|-----------------------------------|
C|----------------------------3-3-3--|
G|-0-1-2-2-1-2-1-1-2-1-1-2-1--3-3-3--|
C|-0-1-2-2-1-2-1-1-2-1-1-2-1---------|
                                                                              
Riff 3: 
D|-------------------------------------------|
A|-------------------------------------------|
F|-------------------------------------------|
C|------------------------------------3-3-3--|
G|-0-1-2-2-1--------------------------3-3-3--|
C|-0-1-2-2-1-2-1-1-2-1-1-2-1-1-2-1-1-1-------|
                                                                              
Riff 4:
D|-----------------------------|
A|-----------------------------|
F|-----------------------------|
C|-----------------------------|
G|-----------------------------|
C|-2-1-1--2-1-1--2-1-1--2-1-1--|
                                                                              
Riff 5 (clean):
D|--------------------------------|
A|-3--3-3--1---3---3--3-3--1---3--|
F|-2--2-2------2---2--2-2------2--|
C|-0---------0--------------------|
G|-----------------3---------0----|
C|--------------------------------|
                                                                              
Riff 6:
D|---------------------------------------------------------------------|
A|---------------------------------------------------------------------|
F|-7-7-7-7-7-7-7-7-7-7-7-7-7-7-7-7--5-5-5-5-5-5-5-5--------------------|
C|-7-7-7-7-7-7-7-7-7-7-7-7-7-7-7-7--5-5-5-5-5-5-5-5--8-8-8-8--7-7-7-7--|
G|-5-5-5-5-5-5-5-5-5-5-5-5-5-5-5-5--3-3-3-3-3-3-3-3--8-8-8-8--7-7-7-7--|
C|---------------------------------------------------8-8-8-8--7-7-7-7--|
                                                                              
Riff 7:
D|---------------------------|
A|---------------------------|
F|-7---------------5---------|
C|-7---------------5---8--7--|
G|-5----0-0---0-0--3---8--7--|
C|------0-0---0-0------8--7--|
Узнай ВСЕ о своем друге в ВК или FB
Riff 8: D|----------------------------------------------------------------------| A|----------------------------------------------------------------------| F|----------------------------------------------------------------------| C|-7--------------------------------5-----------------------------------| G|-55555555555555555555555555555555-3333333333333333--8--------7--------| C|----------------------------------------------------88888888-77777777-| Riff 9: D|-----------------------------| A|-----------------------------| F|-7---------------------------| C|-7---------------------------| G|-5----0-0---0-0---0-0---0-0--| C|------0-0---0-0---0-0---0-0--| Riff 10: D|---------------------------------------| A|---------------------------------------| F|---------------------------------------| C|----------------------------3-3-3------| G|-0-1-2-2-1-2-1-1-2-1-1-2-1--3-3-3---0--| C|-0-1-2-2-1-2-1-1-2-1-1-2-1----------0--| Structure: Intro: Riff 1 (3x) Riff 1(b) (1x) Riff 2 (3x) Riff 3 (1x) Riff 2 (3x) Riff 3 (1x) Riff 2 (8x) Riff 4 (1x) Verse 1: Riff 5 (4x) Riff 6 (4x) Riff 7 (2x) Riff 8 (8x) Instrumental bridge: Riff 9 (1x) Riff 2 (9x) Riff 4 (1x) Verse 2: Riff 5 (4x) Riff 6 (4x) Riff 7 (2x) Riff 8 (8x) Instrumental bridge: Riff 9 (1x) Riff 1 (4x) Riff 2 (3x) Riff 3 (1x) Riff 2 (3x) Riff 3 (1x) Verse 3: (And I need my anger to...) Riff 2 (26x) Riff 4 (1x) Riff 8 (10x) Ending: Riff 9 (1x) Riff 10 (1x)

найти лекарство
список лекарств

Тут

Нужны Самокаты Micro? Сравни цены и сэкономь

micro-swiss.ru








О сайтеАккордыХит-парадПоискУроки ФорумыИщу песню
ПрограммыСвежачок-сПодпискаСтатьи
Яндекс.Метрика