Табулатура Metallica | My World гитара табулатуры уроки тексты песен Metallica текст lyrics песня аккорды песни ноты нота электрогитара струна  
   А Б В Г Д Е Ж З И К Л М Н О П Р С Т У Ф Х Ч Ш Ы Э Ю Я       Разные песни
1-9 A B C D E F G H I J K L M N O P Q R S T U V W Y Z      Все исполнители in english

    



группа Metallica, Табулатура песни My World

Группа: Metallica - другие аккорды (225),   о группе (32 статей),   диски (11),   фотографии (49)
Табулатура песни: My World
Просмотров: 2909
Подобрал: Кс-82




    
Tuning: (C F A# D G C)
INTRO
|---------------------------|    |---------------------------|------------------|
|-2--2-----2-2-2-2-----2----| 2x |-2--2-----2-2-2-2-----3----|-2--2-----2-2-2-2-|
|-2--2-----2-2-2-2-----2----|    |-2--2-----2-2-2-2-----2----|-2--2-----2-2-2-2-|
|-0--0-----0-0-0-0-----0----|    |-0--0-----0-0-0-0-----0----|-0--0-----0-0-0-0-|
  .  .     . . . .                 .  .     . . . .            .  .     . . . .
VERSE                                    
|---------------------------------| |---------------------------|     
|-----------------------------2---| |-2----5----7----5----2-----|     
|-------------------------3-5-----| |-2----5----7----5----2-----|
|-0-0-0-3-0-0-5-0-0-3-0-0---------| |-0----3----5----3----0-----|    
    . .   . .   . .   . .
(Its my World... Its my Time)
|-9---------------12---------------|
|-9---------------12---------------|
|-7---------------10---------------|
|-0----------------0---------------|
CHORUS
|--------------------|    |--------------------|
|-2----5----7--------| 3x |-8----5----2--------|
|-2----5----7--------|    |-8----5----2--------|
|-0----3----5--------|    |-6----3----0--------|
KNOCK OUT RIFF                  (Not Only Do I Not...)
|-------------------------|     |-------------------------|-------------------------|
|-------------------------|     |-------------------------|-------------------------|
Узнай ВСЕ о своем друге в ВК или FB
|-5-2---2-----5p2---7--8--| |-------------------------|-------------------------| |-3-0---0---0-3p0---5--6--| |-3-0---0---0-3p0---5b~~~-|-3-0---0---0-3p0---5--6--| . (God It Feels...) |----------------------------7b----| |------------7b----| |----------------------------7b----| |------------7b----| 3x |-2----2-2-5-2----2-2----2-2-5b----| |-2----2-2-5-5b----| |-0----0-0-3-0----0-0----0-0-------| |-0----0-0-3-------| . . . . . . . . . . . . . PICKUP FILL |-----------------------------------| |----------------------| |-------------| |-----------------------------------| 3x |-555555555-55555-7788-| |-8----5----2-| |-2----2-2-5-2----2-2---5---7---8---| |----------------------| |-8----5----2-| |-0----0-0-3-0----0-0---3p0-5p0-6p0-| |-33333333303333305566-| |-6----3----0-| . . . . . . OUTRO (With Some C5s In Between) |---------------------------------| |-2---5---7---8---7---5---7---8---| |-2---5---7---8---7---5---7---8---| |-0-0-3-0-5-0-6-0-5-0-3-0-5-0-6---| . . . . . . .

искать в аптеке
список лекарств

Orac axxent каталог

Каталог программ. Аннотированный каталог ресурсов интернета

lepnoydom.ru

Поиск кабеля в пучке

Система поиска компонентов по онлайн-складам. Система поиска

kabellabor.ru








О сайтеАккордыХит-парадПоискУроки ФорумыИщу песню
ПрограммыСвежачок-сПодпискаСтатьи
Яндекс.Метрика