Табулатура Metallica | Dirty Window гитара табулатуры уроки тексты песен Metallica текст lyrics песня аккорды песни ноты нота электрогитара струна  
   А Б В Г Д Е Ж З И К Л М Н О П Р С Т У Ф Х Ч Ш Ы Э Ю Я       Разные песни
1-9 A B C D E F G H I J K L M N O P Q R S T U V W Y Z      Все исполнители in english

    



группа Metallica, Табулатура песни Dirty Window

Работа в Европе для граждан РФ, Украины, СНГ

  • минимальная зарплата $500.
  • виза и контракт на полгода, возможно продление
  • проживание оплачивает работодатель
  • нужен только загранпаспорт
  • оформление 190 €
  • данное предложение - отличная возможность эмигрировать в Европу и закрепиться здесь навсегда.

  • Мы свяжемся с Вами по WhatsApp или Viber и ответим на любые вопросы.
    на нашем сайте можно почитать подробнее »

    Группа: Metallica - другие аккорды (225),   о группе (32 статей),   диски (11),   фотографии (49)
    Табулатура песни: Dirty Window
    Просмотров: 2618
    Подобрал: Кс-82




        
    Intro & Bridge:  (With Rhythm Of Drums)
    Eb:------------------------------------
    Bb:------------------------------------
    Gb:------------------------------------
    Db:------------------------------------
    Ab:-0-0--0-0--0---0----0----0----0-----
    Db:-0-0--0-0--0---0----0----0----0----- 
        . .  . .  .   .    .    .    .
    Main Riff:
    Eb:------------------------------------------
    Bb:------------------------------------------
    Gb:------------------------------------------
    Db:------------------------------------------
    Ab:---------------------------------5--------
    Db:-0---3--5---0---3--5---0---3--5-----6--5--
    Db:--------------------------
    Ab:-3~~~3p0--0----3/5--5~----
    Db:-3~~~3p0--0----3/5--5~----
    .Am I Who I Think I Am?. Riff:
    Eb:-----------------------------------------
    Bb:-----------------------------------------
    Gb:-----------------------------------------
    Db:-----------------------------------------
    Ab:-0---3--5----0---x--x-x-x--0---3--5------
    Db:-0---3--5----0---x--x-x-x--0---3--5--5^7-
    .Look Out My Window.. Riff:
    Eb:---------------------------------------
    
    Узнай ВСЕ о своем друге в ВК или FB
    Bb:--------------------------------------- Gb:--------------------------------------- Db:--------------------------------------- Ab:-3---6--8----3---x--x---3---6--8------- Db:-3---6--8----3---x--x---3---6--8.8~---- Db:---------------------- Ab:3---6--8----3---6--8-- Db:3---6--8----3---6--8.- . . . . . . .I.m Judge and The Jury.. Riff: Eb:-------------------------------------------------------------------- Bb:-------------------------------------------------------------------- Gb:-2~~~---2p0~~~3p2~-------------------------------------------------- Db:-----3-------------------------------------------------------------- Ab:------------------------------------------------------------5------- Db:----------------------------0---3--5---0---3--5---0---3--5-----6-5-- Chorus: Eb:--------------------- ------------------------------ Bb:--------------------- ------------------------------ Gb:--------------------- ------------------------------ Db:--------------------- ------------------------------ Ab:-0-----3-----5----0-- -0-----3-----5----5----------- Db:-0-----3-----5----0-- -0-----3-----5-------6--5-----

    лекарство в аптеке
    список лекарств

    http://www.sbolt.ru

    Продажа широкого ассортимента метизов. Хороший выбор. Сравните цены

    sbolt.ru








    О сайтеАккордыХит-парадПоискУроки ФорумыИщу песню
    ПрограммыСвежачок-сПодпискаСтатьи
    Яндекс.Метрика