Табулатура Velvet Underground | Sweet Jane гитара табулатуры уроки тексты песен Velvet Underground текст lyrics песня аккорды песни ноты нота электрогитара струна  
   А Б В Г Д Е Ж З И К Л М Н О П Р С Т У Ф Х Ч Ш Ы Э Ю Я       Разные песни
1-9 A B C D E F G H I J K L M N O P Q R S T U V W Y Z      Все исполнители in english

    



группа Velvet Underground, Табулатура песни Sweet Jane

Продолжаем грести бабос на ботах в Telegram.
Только в этот раз есть вариант автоматизировать это дело, привлекая рефералов. Вы можете заработать если »

Группа: Velvet Underground - другие аккорды (42)
Табулатура песни: Sweet Jane
Просмотров: 736
Подобрал: Echo (indiespace@akkords.ru)




    
guitar 1
                                                           
E||--------------------------|----------x------x------x---|
B||---------10---------------|----------x-x----x-x----x-x-|
G||*--------11----6--6----4--|----4--4--x-x-8--x-x-6--x-x-|
D||*--12----12----7--7----5--|----5--5--x-x-9--x-x-7--x-x-|
A||---12----12----7--7----5--|----5--5----x-9----x-7----x-|
E||---10----10----5--5----3--|----3--3------7------5------|
                                                                                
-------------------------|----------x------x---------|-------------------------|
--------10---------------|----------x-x----x-x-------|--------10---------------|
--------11----6--6----4--|----4--4--x-x-8--x-x-6--6--|--------11----6--6----4--|
--12----12----7--7----5--|----5--5--x-x-9--x-x-7--7--|--12----12----7--7----5--|
--12----12----7--7----5--|----5--5----x-9----x-7--7--|--12----12----7--7----5--|
--10----10----5--5----3--|----3--3------7------5--5--|--10----10----5--5----3--|
                                                       
----------x------x------x---|-------------------------|
----------x-x----x-x----x-x-|--------10---------------|
----4--4--x-x-8--x-x-6--x-x-|--------11----6--6----4--|
----5--5--x-x-9--x-x-7--x-x-|--12----12----7--7----5--|
----5--5----x-9----x-7----x-|--12----12----7--7----5--|
----3--3------7------5------|--10----10----5--5----3--|
                                                       
----------x------x------x---|-------------------------|
----------x-x----x-x----x-x-|--------10---------------|
----4--4--x-x-8--x-x-6--x-x-|--------11----6--6----4--|
----5--5--x-x-9--x-x-7--x-x-|--12----12----7--7----5--|
----5--5----x-9----x-7----x-|--12----12----7--7----5--|
----3--3------7------5------|--10----10----5--5----3--|
                                                       
----------x------x------x---|-------------------------|
----------x-x----x-x----x-x-|--------10---------------|
----4--4--x-x-8--x-x-6--x-x-|--------11----6--6----4--|
----5--5--x-x-9--x-x-7--x-x-|--12----12----7--7----5--|
----5--5----x-9----x-7----x-|--12----12----7--7----5--|
----3--3------7------5------|--10----10----5--5----3--|
                                                       
----------x------x------x---|-------------------------|
----------x-x----x-x----x-x-|--------10---------------|
----4--4--x-x-8--x-x-6--x-x-|--------11----6--6----4--|
----5--5--x-x-9--x-x-7--x-x-|--12----12----7--7----5--|
----5--5----x-9----x-7----x-|--12----12----7--7----5--|
----3--3------7------5------|--10----10----5--5----3--|
                                                       
----------x------x------x---|-------------------------|
----------x-x----x-x----x-x-|--------10---------------|
----4--4--x-x-8--x-x-6--x-x-|--------11----6--6----4--|
----5--5--x-x-9--x-x-7--x-x-|--12----12----7--7----5--|
----5--5----x-9----x-7----x-|--12----12----7--7----5--|
----3--3------7------5------|--10----10----5--5----3--|
                                                       
----------x------x------x---|-------------------------|
----------x-x----x-x----x-x-|--------10---------------|
----4--4--x-x-8--x-x-6--x-x-|--------11----6--6----4--|
----5--5--x-x-9--x-x-7--x-x-|--12----12----7--7----5--|

Продолжаем грести бабос на ботах в Telegram.
Только в этот раз есть вариант автоматизировать это дело, привлекая рефералов. Вы можете заработать если »

----5--5----x-9----x-7----x-|--12----12----7--7----5--| ----3--3------7------5------|--10----10----5--5----3--| ----------x------x------x---|-------------------------| ----------x-x----x-x----x-x-|--------10---------------| ----4--4--x-x-8--x-x-6--x-x-|--------11----6--6----4--| ----5--5--x-x-9--x-x-7--x-x-|--12----12----7--7----5--| ----5--5----x-9----x-7----x-|--12----12----7--7----5--| ----3--3------7------5------|--10----10----5--5----3--| ----------x------x------x---|--2--2--2--2--2--2--2--2--| ----------x-x----x-x----x-x-|--3--3--3--3--3--3--3--3--| ----4--4--x-x-8--x-x-6--x-x-|--2--2--2--2--2--2--2--2--| ----5--5--x-x-9--x-x-7--x-x-|--0--0--0--0--0--0--0--0--| ----5--5----x-9----x-7----x-|--------------------------| ----3--3------7------5------|--------------------------| --3--3--3--3--3--3--3--3--|--2--2--2--2--2--2--2--2--| --0--0--0--0--0--0--0--0--|--3--3--3--3--3--3--3--3--| --0--0--0--0--0--0--0--0--|--2--2--2--2--2--2--2--2--| --0--0--0--0--0--0--0--0--|--0--0--0--0--0--0--0--0--| --2--2--2--2--2--2--2--2--|--------------------------| --3--3--3--3--3--3--3--3--|--------------------------| --3--3--3--3--3--3--3--3--|--2--2--2--2--2--2--2--2--| --0--0--0--0--0--0--0--0--|--3--3--3--3--3--3--3--3--| --0--0--0--0--0--0--0--0--|--2--2--2--2--2--2--2--2--| --0--0--0--0--0--0--0--0--|--0--0--0--0--0--0--0--0--| --2--2--2--2--2--2--2--2--|--------------------------| --3--3--3--3--3--3--3--3--|--------------------------| 2x --3--3--3--3--3--3--3--3---||--2--2--2--2--2--2--2--2--| --0--0--0--0--0--0--0--0---||--3--3--3--3--3--3--3--3--| --0--0--0--0--0--0--0--0--*||--2--2--2--2--2--2--2--2--| --0--0--0--0--0--0--0--0--*||--0--0--0--0--0--0--0--0--| --2--2--2--2--2--2--2--2---||--------------------------| --3--3--3--3--3--3--3--3---||--------------------------| --3--3--3--3--3--3--3--3--|--2--2--2--2--2--2--2--2--| --0--0--0--0--0--0--0--0--|--3--3--3--3--3--3--3--3--| --0--0--0--0--0--0--0--0--|--2--2--2--2--2--2--2--2--| --0--0--0--0--0--0--0--0--|--0--0--0--0--0--0--0--0--| --2--2--2--2--2--2--2--2--|--------------------------| --3--3--3--3--3--3--3--3--|--------------------------| --3--3--3--3--3--3--3--3--|| --0--0--0--0--0--0--0--0--|| --0--0--0--0--0--0--0--0--|| --0--0--0--0--0--0--0--0--|| --2--2--2--2--2--2--2--2--|| --3--3--3--3--3--3--3--3--||

искать в аптеке
список лекарств






О сайтеАккордыХит-парадПоискУроки ФорумыИщу песню
ПрограммыСвежачок-сПодпискаСтатьи
Яндекс.Метрика