Табулатура Velvet Underground | Pale Blue Eyes гитара табулатуры уроки тексты песен Velvet Underground текст lyrics песня аккорды песни ноты нота электрогитара струна  
   А Б В Г Д Е Ж З И К Л М Н О П Р С Т У Ф Х Ч Ш Ы Э Ю Я       Разные песни
1-9 A B C D E F G H I J K L M N O P Q R S T U V W Y Z      Все исполнители in english

    



группа Velvet Underground, Табулатура песни Pale Blue Eyes

Продолжаем грести бабос на ботах в Telegram.
Только в этот раз есть вариант автоматизировать это дело, привлекая рефералов. Вы можете заработать если »

Группа: Velvet Underground - другие аккорды (42)
Табулатура песни: Pale Blue Eyes
Просмотров: 860
Подобрал: Echo (indiespace@akkords.ru)




    
                                                                               
D||-------------------------------------|-------------------------------------|
A||--------12------12------12-------10--|--------12------12------12-------10--|
F||-------------------------------------|-------------------------------------|
C||--10/12-----12------12------8/10-----|--10/12-----12------12------8/10-----|
G||-------------------------------------|-------------------------------------|
D||-------------------------------------|-------------------------------------|
                                                                             
|--------------------------------------|------------------------------------|
|---------12------12------12-------10--|--------12------12------12------12--|
|*-------------------------------------|------------------------------------|
|*--10/12-----12------12------8/10-----|--10/12-----12------12------12------|
|--------------------------------------|------------------------------------|
|--------------------------------------|------------------------------------|
                                                                      
------8-------8----------------|-------------------------------------|
---------8h10----8h10-8-----8--|--------12------12------12-------10--|
--7/9--------------------9-----|-------------------------------------|
-------------------------------|--10/12-----12------12------8/10-----|
-------------------------------|-------------------------------------|
-------------------------------|-------------------------------------|
                                                              
------------------------------------|------------------------|
--------12------12------12------12--|--------12--------------|
------------------------------------|--12--------12----------|
--10/12-----12------12------12------|------------------------|
------------------------------------|------------------------|
------------------------------------|------------------------|
                                                                    
------5------------8--8h10-8--|------------------------------------|
------------5-----------------|--------12------12------12------12--|
--3/5----5-----7/9------------|------------------------------------|
------------------------------|--10/12-----12------12------12------|
------------------------------|------------------------------------|
------------------------------|------------------------------------|
                                                                           
------8---------------10------------|-------------------------------------|
---------8h10-8-----------10h12-10--|--------12------12------12-------10--|
--7/9------------9/11---------------|-------------------------------------|
------------------------------------|--10/12-----12------12------8/10-----|
------------------------------------|-------------------------------------|
------------------------------------|-------------------------------------|
                                                                             
------------------------------------|-------10--------10----------------10--|
--------12------12------12------12--|-----------10h12-----10h12-10----------|
------------------------------------|--9/11-------------------------11------|
--10/12-----12------12------12------|---------------------------------------|
------------------------------------|---------------------------------------|
------------------------------------|---------------------------------------|
                                                                           
----------10------12--10------------|-------------------------------------|
--10----------10----------10h12-10--|--------12------12------12-------10--|
------11----------------------------|-------------------------------------|
------------------------------------|--10/12-----12------12------8/10-----|
------------------------------------|-------------------------------------|
------------------------------------|-------------------------------------|
                                                                              
-------------------------------------|-------10--------10----------------10--|
--------12------12------12-------10--|-----------10h12-----10h12-10----------|
-------------------------------------|--9/11-------------------------11------|
--10/12-----12------12------8/10-----|---------------------------------------|
-------------------------------------|---------------------------------------|
-------------------------------------|---------------------------------------|
                                                                           
----------10------12--10------------|-------------------------------------|
--10----------10----------10h12-10--|--------12------12------12-------10--|
------11----------------------------|-------------------------------------|
------------------------------------|--10/12-----12------12------8/10-----|
------------------------------------|-------------------------------------|
------------------------------------|-------------------------------------|
                                      2x                             
--------------------------------------||--------15------------------|
--------12------12------12-------10---||----15------18~-----15------|
-------------------------------------*||------------------------17--|
--10/12-----12------12------8/10-----*||----------------------------|
--------------------------------------||----------------------------|
--------------------------------------||----------------------------|
                                                              
------------------------------|------------------------------|
--15--------------------------|----17----17--15--------------|
--15b-------------------------|----17----17--15--------------|
----------17--17--17--15--17--|------------------17--15--17--|
------------------------------|------------------------------|
------------------------------|------------------------------|
                                                                    
------------------------------------|------15----------------------|
------15----------------------------|----------15------------------|
--15------15b-------------------15--|--------------17b---17r-15----|
--------------17----------15h17-----|--17--------------------------|
--------------------15h17-----------|------------------------------|
------------------------------------|------------------------------|
                                                                
----12------------------------|--------------------------------|
--------12--------------------|----------------14r---12h13-12--|
------------14b---14r-12------|--14----14--12------------------|
--------------------------14--|--------------------------------|
------------------------------|--------------------------------|
------------------------------|--------------------------------|
                                                                      
------------------------------------|------8------8------10------10--|

Продолжаем грести бабос на ботах в Telegram.
Только в этот раз есть вариант автоматизировать это дело, привлекая рефералов. Вы можете заработать если »

------------------------------------|------------------------10------| --12----12/10----10h12--12--10--10--|---------8h9--------------------| --------------12--------------------|--10------------12--------------| ------------------------------------|--------------------------------| ------------------------------------|--------------------------------| -------------------------------------|------------------------------------| --------12------12------12-------10--|--------12------12------12------12--| -------------------------------------|------------------------------------| --10/12-----12------12------8/10-----|--10/12-----12------12------12------| -------------------------------------|------------------------------------| -------------------------------------|------------------------------------| |--------10---------14------------12-----|-------10---------14---12------------| |----------------------------------------|---------------------------10h12-10--| |*--9/11------11/14------14-11/12----12--|--9/11------11/14--------------------| |*---------------------------------------|-------------------------------------| |----------------------------------------|-------------------------------------| |----------------------------------------|-------------------------------------| -------------------------------------|-------------------------------------|| --------12------12------12-------10--|--------12------12------12------12---|| -------------------------------------|------------------------------------*|| --10/12-----12------12------8/10-----|--10/12-----12------12------12------*|| -------------------------------------|-------------------------------------|| -------------------------------------|-------------------------------------|| -------------------------------------|------------------------------------| --------12------12------12-------10--|--------12------12------12------12--| -------------------------------------|------------------------------------| --10/12-----12------12------8/10-----|--10/12-----12------12------12------| -------------------------------------|------------------------------------| -------------------------------------|------------------------------------| ------8-------8----------------|-------------------------------------| ---------8h10----8h10-8-----8--|--------12------12------12-------10--| --7/9--------------------9-----|-------------------------------------| -------------------------------|--10/12-----12------12------8/10-----| -------------------------------|-------------------------------------| -------------------------------|-------------------------------------| ------------------------------------|------------------------| --------12------12------12------12--|--------12--------------| ------------------------------------|--12--------12----------| --10/12-----12------12------12------|------------------------| ------------------------------------|------------------------| ------------------------------------|------------------------| ------8---------------10------------|-------------------------------------| ---------8h10-8-----------10h12-10--|--------12------12------12-------10--| --7/9------------9/11---------------|-------------------------------------| ------------------------------------|--10/12-----12------12------8/10-----| ------------------------------------|-------------------------------------| ------------------------------------|-------------------------------------| ------8---------------10------------|------------------------------------| ---------8h10-8-----------10h12-10--|--------12------12------12------12--| --7/9------------9/11---------------|------------------------------------| ------------------------------------|--10/12-----12------12------12------| ------------------------------------|------------------------------------| ------------------------------------|------------------------------------| |-------------------------------------|-------10--------10----------------10--| |---------12------12------12------12--|-----------10h12-----10h12-10----------| |*------------------------------------|--9/11-------------------------11------| |*--10/12-----12------12------12------|---------------------------------------| |-------------------------------------|---------------------------------------| |-------------------------------------|---------------------------------------| ----------10------12--10------------|-------------------------------------| --10----------10----------10h12-10--|--------12------12------12-------10--| ------11----------------------------|-------------------------------------| ------------------------------------|--10/12-----12------12------8/10-----| ------------------------------------|-------------------------------------| ------------------------------------|-------------------------------------| -------------------------------------|-------10--------10----------------10--| --------12------12------12-------10--|-----------10h12-----10h12-10----------| -------------------------------------|--9/11-------------------------11------| --10/12-----12------12------8/10-----|---------------------------------------| -------------------------------------|---------------------------------------| -------------------------------------|---------------------------------------| ----------10------12--10------------|-------------------------------------| --10----------10----------10h12-10--|--------12------12------12-------10--| ------11----------------------------|-------------------------------------| ------------------------------------|--10/12-----12------12------8/10-----| ------------------------------------|-------------------------------------| ------------------------------------|-------------------------------------| 2x --------------------------------------||----|| --------12------12------12-------10---||----|| -------------------------------------*||----|| --10/12-----12------12------8/10-----*||----|| --------------------------------------||----|| --------------------------------------||----||

лекарство в аптеке
список лекарств






О сайтеАккордыХит-парадПоискУроки ФорумыИщу песню
ПрограммыСвежачок-сПодпискаСтатьи
Яндекс.Метрика