Аккорды Песни из кинофильмов | Беспризорник (из Кф "Генералы Песчаных Карьеров") гитара табулатуры уроки тексты песен Песни из кинофильмов текст lyrics песня аккорды песни ноты нота электрогитара струна  
   А Б В Г Д Е Ж З И К Л М Н О П Р С Т У Ф Х Ч Ш Ы Э Ю Я       Разные песни
1-9 A B C D E F G H I J K L M N O P Q R S T U V W Y Z      Все исполнители

    



группа Песни из кинофильмов, Аккорды песни Беспризорник (из Кф "Генералы Песчаных Карьеров")

Группа: Песни из кинофильмов - другие аккорды (207)
Аккорды песни: Беспризорник (из Кф "Генералы Песчаных Карьеров")
Просмотров: 9545
Прислал: Соломон Каин (solomonkain@akkords.ru)




     E
|------------|------------|------------|------------
Н |------------|------------|------------|------1--3--
G |------------|------------|------------|---2--------
D |------------|------------|------------|------------
A |------------|------------|------------|------------
E |------------|------------|------------|------------
E |0-----------|------0-----|------------|------0-----
Н |---3--1--0--|---------1--|3-----3-----|3--1-----3--
G |------------|2--2--------|---2-----2--|------------
D |------------|------------|0-----------|------------
A |0-----------|0-----------|------------|------------
E |------------|------------|------------|------------
E |------------|------------|------------|0-----------
Н |1-----1-----|1--1--3--1--|0--------0--|------1--3--
G |---0-----0--|------------|------1-----|---2--------
D |------------|------------|---2--------|------------
A |3-----------|------------|------------|------------
E |------------|------------|0-----------|------------
E |0-----------|------5-----|3-----------|---0--5--3--
Н |---3--1--0--|---------5--|------0-----|0-----------
G |------------|2--2--------|---0-----0--|------------
D |------------|------------|------------|------------
A |0-----------|0-----------|------------|------------
E |------------|------------|3-----------|------------
E |1-----------|------3--1--|0-----------|0-----------
Н |------1-----|1--3--------|---------0--|------1--3--
G |---0-----0--|------------|------1-----|---2--------
D |------------|------------|---2--------|------------
A |3-----------|------------|------------|------------
E |------------|------------|0-----------|------------
E |0-----------|------0-----|------------|------0-----
Н |---3--1--0--|---------1--|3-----3-----|3--1-----3--
G |------------|2--2--------|---2-----2--|------------
D |------------|------------|0-----------|------------
A |0-----------|0-----------|------------|------------
E |------------|------------|------------|------------
E |------------|------------|------------|------------
Н |1--0--3--1--|0-----1 р0--|------------|------------
G |------------|------------|2-----------|------------

Продолжаем грести бабос на ботах в Telegram.
Только в этот раз есть вариант автоматизировать это дело, привлекая рефералов. Вы можете заработать если »

D |------------|---2--------|------------|------------ A |3-----------|------------|0-----------|------------ E |------------|0-----------|------------|------------ Am Dm Я начал жизнь в трущобах городских, C E И добрых слов я не слыхал. Am A7 Когда ласкали вы детей своих- Dm G7 C E Я есть просил, я замерзал. Am Dm Вы увидав меня не прячьте взгляд C E Am Ведь я ни в чем, ни в чем не виноват. Проигрыш. За что вы бросили меня, за что? Где мой очаг? Где мой ночлег? Не признаете вы мое родство, А я вам брат, я человек. Вы вечно молитесь своим богам, И ваши боги все прощают вам. Проигрыш. Край небоскребов и шикарных вилл, Из окон льет слепящий свет. О, если б мне хоть раз набраться сил, Вы б дали мне за все ответ. Откройте двери, люди, я ваш брат Ведь я ни в чем, ни в чем не виноват. Проигрыш. Вы знали ласки матерей родных, А я не знал и лишь во сне, В моих мечтаньях детских золотых Мать иногда являлась мне. О мама если бы найти тебя, Была б не так горька моя судьба.








О сайтеАккордыХит-парадПоискУроки ФорумыИщу песню
ПрограммыСвежачок-сПодпискаСтатьи
Яндекс.Метрика