Табулатура Король и Шут | Садовник (3) гитара табулатуры уроки тексты песен Король и Шут текст lyrics песня аккорды песни ноты нота электрогитара струна  
   А Б В Г Д Е Ж З И К Л М Н О П Р С Т У Ф Х Ч Ш Ы Э Ю Я       Разные песни
1-9 A B C D E F G H I J K L M N O P Q R S T U V W Y Z      Все исполнители in english

    



группа Король и Шут, Табулатура песни Садовник (3)

Продолжаем грести бабос на ботах в Telegram.
Только в этот раз есть вариант автоматизировать это дело, привлекая рефералов. Вы можете заработать если »

Группа: Король и Шут - другие аккорды (277),   о группе (10 статей),   диски (9),   фотографии (68)
Табулатура песни: Садовник (3)
Просмотров: 2737
Подобрал: M@x




    
Tabed by Max
Садовник . Интро.
Distortion Guitar
                                                                               
      C#m           A             B              G#m              A            
E||--------------|-------------|--------------|---------------||--------------|
B||--------------|-------------|--------------|--------5-7----||--------------|
G||*----6--4-6---|----6--4-6---|----6--4-6--6/|--9--6--------*||----4--2-1----|
D||*-------------|-------------|--------------|--------------*||------------4-|
A||--------------|-------------|--------------|---------------||--------------|
E||--------------|-------------|--------------|---------------||--------------|
  F#m         A              F#m                   
-----------|--------------|-----------|----------||
-----------|--------------|-----------|----------||
----6------|----4--2-1--4/|--5--------|----------||
-----------|--------------|-----------|----------||
-----------|--------------|-----------|----------||
-----------|--------------|-----------|----------||
Бас гитара(finger)
                                                                  
G||---6--6--6--6--|--------------|--4--4--4--4--|---------------||
D||*--------------|--7--7--7--7--|--------------|--6--6--6--6--*||
A||*--------------|--------------|--------------|--------------*||
E||---------------|--------------|--------------|---------------||
                                                                     
--------------|--------------|--------------|--5--------|----------||
--7--7--7--7--|--4--4--4--4--|--7--7--7--7--|-----------|----------||
--------------|--------------|--------------|-----------|----------||
--------------|--------------|--------------|-----------|----------||
Ударные
C||----46--46--46--46-|---46--46--46--46-|---46--46--46--46-|
C||-------------------|------------------|------------------|

Продолжаем грести бабос на ботах в Telegram.
Только в этот раз есть вариант автоматизировать это дело, привлекая рефералов. Вы можете заработать если »

C||*------------------|------------------|------------------| C||*------------------|------------------|------------------| C||-------------------|------------------|------------------| C||-------------------|------------------|------------------| ---46--46--46--46--||---46--46--46--46-|---46--46--46--46-|---46--46--46--46-| -------------------||------------------|------------------|------------------| ------------------*||------------------|------------------|------------------| ------------------*||------------------|------------------|------------------| -------------------||------------------|------------------|------------------| -------------------||------------------|------------------|------------------| ---46-------|---|| ------------|---|| ------------|---|| ------------|---|| ------------|---|| ------------|---|| Пояснения: Послушайте песню и вам все пояснится. А ударные это просто они играются между тактами с басом если они кому-то и нужны. ќ46 - Open Hi-Hat› Бас играется пальцами(чтобы звук был без щелчков) это для папуасов. Ну аккорды там конечно не играются я просто их поставил. Дальше ничего не подбирал в хоббитовых наворотах. Слова и все остальное найдете у других. P.S. Вот решил первый раз написать табы. А то как посмотрел здесь такие ќшедевры› встречаются. Юzайте.

поиск лекарств
список лекарств

компрессор-4ву1-5-9.рф

Компрессоры рекомендуем. Все актуальные предложения о продаже

компрессор-4ву1-5-9.рф

Квест в петербурге на 15 человек

Захватывающие квесты в Москве. Получи порцию адреналина для себя и друзей

hodilkibrodilki.ru

Moto.allegro.pl на русском

moto.allegro.pl на русском

allegro-pl.ru








О сайтеАккордыХит-парадПоискУроки ФорумыИщу песню
ПрограммыСвежачок-сПодпискаСтатьи
Яндекс.Метрика