Аккорды H.I.M. | This Fortress Of Tears гитара табулатуры уроки тексты песен H.I.M. текст lyrics песня аккорды песни ноты нота электрогитара струна  
   А Б В Г Д Е Ж З И К Л М Н О П Р С Т У Ф Х Ч Ш Ы Э Ю Я       Разные песни
1-9 A B C D E F G H I J K L M N O P Q R S T U V W Y Z      Все исполнители in english

    



группа H.I.M., Аккорды песни This Fortress Of Tears

Группа: H.I.M. - другие аккорды (273),   о группе (2 статей),   диски (5),   фотографии (82)
Аккорды песни: This Fortress Of Tears
Просмотров: 2319
Подобрал: Артём (timon14@inbox.ru)




    
H.I.M. "This Fortress Of Tears"
"Love Metal"
--------------------------------------------
Вступление: 
1|-------|----------|----------------------|
2|--2-3--|-2-2-2-0--|----------------------|
3|-------|----------|----------------------|
4|-------|----------|-4(подтяжка вниз)--2--|
5|--0-2--|-0-0-0----|----------------------|
6|-------|-------3--|-------------------0--|
2 часть под аккорды:                                 
    A-Hm   A     G                      Em           A        Hm       A        G                            Em
1|-------|----------|----------------------|     1|--5-----|--7-----|--5-----|--3-----|-------------------|--7-----|
2|--2-3--|-2-2-2-0--|----------------------|     2|--5-----|--7-----|--5-----|--3-----|-------------------|--7-8---|
3|-------|----------|----------------------|     3|--5-6---|--7-----|--5-6---|--3-4---|-------------------|--7---9-|
4|-------|----------|-4(подтяжка вниз)--2--|     4|--5---7-|--7---9-|--5---7-|--3---5-|--4(подтяжка вниз)-|--7---9-|
5|--0-2--|-0-0-0----|----------------------|     5|--5---7-|--7---9-|--5---7-|--3---5-|-------------------|--7-----|
6|-------|-------3--|-------------------0--|     6|--5-----|--7-----|--5-----|--3-----|-------------------|--------|
Hm
No one can hurt you now
A                      Em
In this haven safe and sound
5|------5--|  Em  5|--7-5----|

Продолжаем грести бабос на ботах в Telegram.
Только в этот раз есть вариант автоматизировать это дело, привлекая рефералов. Вы можете заработать если »

6|--5-7----| 6|------7--| Hm No one can save you now A Em From this grace you are drowning in Em G A Just hold your breath on your way down Chorus: D Hm THIS FORTRESS OF TEARS Hm G D A I've built from my fears for you D Hm This fortress won't fall Hm G D A I've built it strong for you No one can free you now From the chains around your heart Don't be afraid now Just dive in this emptiness And hold your breath on your way down.








О сайтеАккордыХит-парадПоискУроки ФорумыИщу песню
ПрограммыСвежачок-сПодпискаСтатьи
Яндекс.Метрика