Аккорды Christie | Martian King (j Christie) гитара табулатуры уроки тексты песен Christie текст lyrics песня аккорды песни ноты нота электрогитара струна  
   А Б В Г Д Е Ж З И К Л М Н О П Р С Т У Ф Х Ч Ш Ы Э Ю Я       Разные песни
1-9 A B C D E F G H I J K L M N O P Q R S T U V W Y Z      Все исполнители

    



группа Christie, Аккорды песни Martian King (j Christie)

Группа: Christie - другие аккорды (47),   о группе (27 статей),   диски (28),   фотографии (130)
Аккорды песни: Martian King (j Christie)
Просмотров: 1339
Подобрал: Sabbath (sabbath54@mail.ru)




    
MARTIAN KING (J Christie) 
Dm-F-C-Dm       Dm-F-C-Dm
Dm-A-Dm -A-Dm
Dm                      A
Take me to the Martian king 
Dm                        A
I'm gonna tell him everything
Dm                           A
Tell him 'bout the bombs we make
Dm                       A
Not to make the same mistake
Dm-A-Dm -A-Dm
Take a message to the moon
Tell them that I'm coming soon
Take a message to the sun
Tell him that the devil won
Dm            F               C                Dm
Up into the stars   I'll fly upon your mighty wing
Dm               F              C              Dm
Take me to your leader  Take me to the Martian king
Dm-F-C-Dm    Dm-F-C-Dm
G                     Dm
Gonna get a one-way ticket
G                   Dm
Gonna get a one-way fare
G                    Dm
Gonna get a one-way ticket
F
Leave the planet Earth
G
For another world
Dm-A-Dm-A-Dm
 Riff A
E-------------------------------------------------------
B-------------------------------------------------------
G-------------------------------------------------------
D-----------------3-2-3-2-3------------------0-3-2------
A--5-4-5-4-5------------------3-2-3-2-3------------3----
E-------------------------------------------------------
Riff B
E-------------------------------------------------------
B-------------------------------------------------------
G-------------------------------------------------------
D-----------------3-2-3-2-3------------------0-3-2------
A--5-4-5-4-5------------------3-2-3-2-3------------3--5-
E-------------------------------------------------------
SOLO
Riff C
E----------------------------------------------------------------------
B----------------------------------------------------------------------

Продолжаем грести бабос на ботах в Telegram.
Только в этот раз есть вариант автоматизировать это дело, привлекая рефералов. Вы можете заработать если »

G--------------------------------------7-5-7-5-7-5---7-7-7-7--7777777777 D-------------3-2-3-2-3-2--7-5-7-5-7-5--------------------------------- A-5-3-5-3-5-3---------------------------------------------------------- E---------------------------------------------------------------------- Em-H-Em-H-Em Em H Take me to the Martian king Em H I'm gonna tell him everything Em H Tell him 'bout the bombs we make Em H Not to make the same mistake Em-H-Em-H-Em Take a message to the moon Tell them that I'm coming soon Take a message to the sun Tell him that the devil won Em G Up into the stars D Em I'll fly upon your mighty wing G Take me to your leader D Em Take me to the Martian king Em-G-D-Em Em-G-D-Em A Em Gonna get a one-way ticket A Em Gonna get a one-way fare A Em Gonna get a one-way ticket G Leave the planet Earth A For another world Em-H-Em-H-Em








О сайтеАккордыХит-парадПоискУроки ФорумыИщу песню
ПрограммыСвежачок-сПодпискаСтатьи
Яндекс.Метрика