Табулатура Linkin Park | Faint гитара табулатуры уроки тексты песен Linkin Park текст lyrics песня аккорды песни ноты нота электрогитара струна  
   А Б В Г Д Е Ж З И К Л М Н О П Р С Т У Ф Х Ч Ш Ы Э Ю Я       Разные песни
1-9 A B C D E F G H I J K L M N O P Q R S T U V W Y Z      Все исполнители in english

    



группа Linkin Park, Табулатура песни Faint

Группа: Linkin Park - другие аккорды (129),   о группе (7 статей),   диски (3),   фотографии (31)
Табулатура песни: Faint
Просмотров: 4212
Подобрал: zmicer (zmicer@4enet.by)




    
Papercut
Tuning: C, G, C, F, D, A
Intro
D 10--12--13--12--10--12--13--12-----
A --10--10--10--10--10--10--10--10---
F -------------------------------------
C -------------------------------------
G -------------------------------------
C -------------------------------------
Chorus
D -----------------------------------------
A -----------------------------------------
F --------10--9--5-------------------------
C 0-0-0--------------------------------1-3
G 0-0-0---8--7--3---------------------1-3-
C 0-0-0--------------------------------1-3
(last time only)
Verse
D -------------------------------------------
A -------------------------------------------
F -------------------------------------------
C 0-0-0----8-8-8-8-7-7-------------------1-3
G 0-0-0----8-8-8-8-7-7-------------------1-3
C 0-0-0----8-8-8-8-7-7-------------------1-3
[palm mute all] [Every Other Time]
Ending
D --------------------------------------------------------
A --------------------------------------------------------
F --------------------------------------------------------
C 8-8-8---8---8-8-10-10-10---5-5-5---5--5-5-5-5---5-5-5
G 8-8-8---8---8-8-10-10-10---5-5-5---5--5-5-5-5---5-5-5
C 8-8-8---8---8-8-10-10-10---5-5-5---5--5-5-5-5---5-5-5
One Step Closer
Tuning: C, G, C, F, A, D
* = Harmonic
pm = Palm Mute
Intro
D -----------------------------------------------
A -----------------------------------------------
F -----------------------------------------------
C -----------------------------------------------
G ---------*7-----------------------------------
C 0--*5-0-----8-7--0-3-------------------------
pm pm pm
Verse
D -----------------------------------------------
A -----------------------------------------------
F --------9--------5-----------------------------
C 0-0--0--x--8-7---x----------------------------
G 0-0--0--7--8-7---3----------------------------
C 0-0--0-----8-7-0------------------------------
Bridge 1
D ----------------------------------------------------
A ----------------------------------------------------
F ----------------------------------------------------
C 5-5---x-x---x-5-5---x-x---x-5-5--x-x---x-----------
G 5-5---x-x---x-5-5---x-x---x-5-5--x-x---x-----------
C 5-5---x-x---x-5-5---x-x---x-5-5--x-x---x-----------
Bridge 2
D ------------------------------------*5-*5-*5--------
A ---------------------------------*5------------------
F -----------------------------------------------------
C 5-5---x-x---x-5-5---x-x---x-5-5---------------------
G 5-5---x-x---x-5-5---x-x---x-5-5---------------------
C 5-5---x-x---x-5-5---x-x---x-5-5---------------------
Chorus
D --------------------------------------------------------------
A --------------------------------------------------------------
F --------------------------------------------------------------
C 0--0--12-12--10-10--7---8-8--5-5--7-7--3-3---1-1-1-1-1-1-1
G 0--0--12-12--10-10--7---8-8--5-5--7-7--3-3---1-1-1-1-1-1-1
C 0--0--12-12--10-10--7---8-8--5-5--7-7--3-3---1-1-1-1-1-1-1
(last time only)
Other Part
D ---------------------------------------------
A ---------------------------------------------
F ---------------------------------------------
C 1-0---0-0---0---1-3-0-0--6\\------0-0-0-----
G 1-0---0-0---0---1-3-0-0--6\\------0-0-0-----
C 1-0---0-0---0---1-3-0-0--6\\------0-0-0-----
pm...... (second time only)
With You
Guitar Tuning: C, G, C, F, A, D (low to high)
Key: / = Slide
* = Harmonic
INTRO/opening to chorus (* means a harmonic)
D --------------------------------
A --------------------------------
F --------------------------------
C --------------------------------
G --------------------------------
C ---0-0--0-13/0--0-0-0-0-0-4*--
VERSE (High B string and G)
D ---20---19------------------------20--------19-
A --------------19---16-------16--------12-------
F ------------------------------------------------
C ------------------------------------------------
G ------------------------------------------------
C ------------------------------------------------
CHORUS/second part of intro
D --------------------------------------------------
A --------------------------------------------------
F --------------------------------7--------------4--
C ---2----------------------------5--------------x--
G ---0--------------2-------------3--------------5--
C ------------------0----------------------------3--
Points Of Authority
Tuning: C, G, C, F, A, D
Note: H below a note means hammer on
Intro
D ----7-------7--------7-------7------------
A --8---8---8---8---8---8---8---8----------
F 9--------9-------9-------9----------------
C ------------------------------------------
G ------------------------------------------
C ------------------------------------------
Intro 2 and Verse
D ----------------------------------------------------------
A ----------------------------------------------------------
F ----------------------------------------------------------
C 2-2---2h3---3---0h2---2h3---0h2-2---2h3--x-2-x-0-x-3---
G 2-2---2h3---3---0h2---2h3---0h2-2---2h3--x-2-x-0-x-3---
C 2-2---2h3---3---0h2---2h3---0h2-2---2h3--x-2-x-0-x-3---
pm (palm mute the x)
Chorus
D ---------------------------------------
A ---------------------------------------
F 4----5----4----5----4----5----4----5--
C 2----3----2----3----2----3----2----3--
G 2----3----2----3----2----3----2----3--
C 2----3----2----3----2----3----2----3--
Crawling
Tuning: C, G, C, F, A, D
Note: The only guitar part in the whole song is on the chorus.
Chorus
D ----------------------------------------
A ----------------------------------------
F -----3---------5----2-------------------
C 0----3----3----5----2------------------
G 0----1----3----3----0------------------
C 0---------3-----------------------------
Runaway
Tuning: C, G, C, F, A, D
* = Harmonic
Intro
D ----------------------------------------------------------
A ----------------------------------------------------------
F 7---7-7-10---10-10--10---10-10-3---3-3-5---5-5--5---5-5
C 7---7-7-10---10-10--10---10-10-3---3-3-5---5-5--5---5-5
G 5---5-5--8----8--8---8----8--8--1---1-1-3---3-3--3---3-3
C ----------------------------------------------------------
Chorus
D ---------------------------------------------------------------
A ---------------------------------------------------------------
F ----------10---10-10--10---10-10-------------------------------
C 0---0-0---10--10-10--10---10-10-8---8-8-10---10-10--10---10-10
G 0---0-0---8----8---8---8----8--8-8---8-8-10---10-10--10---10-10
C 0---0-0---------------------------8---8-8-10---10-10--10---10-10
Verse (clean)
D -------------------------------------------------------------------
A -------------------------------------------------------------------
F -------------------------------------------------------------------
C *12-*12-*12-*12-*12-*12-*12-*12-*12-*12-*12-*12-10-10-10-10
G -------------------------------------------------------------------
C -------------------------------------------------------------------
pm.............................................................................................
Middle Part
D -----------------------------------
A -----------------------------------
F -----------------------------------
C 0---0-0-1-0-0-0---0-0-0-1--------
G 0---0-0-1-0-0-0---0-0-0-1--------
C 0---0-0-1-0-0-0---0-0-0-1--------
By Myself
Tuning: C, G, C, F, A, D
* = Harmonic
Intro and Bridge
D --------------------------------------------------------------
A --------------------------------------------------------------
F 4--4-----------------4--4-------------------------------------
C 4--4--*3--3-3--3--3--4--4--*3--3-3--3--3--------------------
G 2--2------3-3--3--3--2--2-------3-3--3--3--------------------
C ----------3-3--3--3-------------3-3--3--3--------------------
pm....... pm.......
Chorus
D --------------------------------------------------------------
A --------------------------------------------------------------
F 4--------------------------4----------------------------------
C 4----5--x-x--x--2--x-x--x--4----5--x-x--x--2--x-x--x----------
G 2----5--x-x--x--2--x-x--x--2----5--x-x--x--2--x-x--x----------
C -----5--x-x--x--2--x-x--x-------5--x-x--x--2--x-x--x----------
pm..... pm..... pm..... pm.....
Middle Part
D --------------------------------------------------------------
A --------------------------------------------------------------
F 4--4------------------4--4------------------------------------
C 4--4-------3-3--3--3--4--4-------3-3--3--3-------------------
G 2--2-------3-3--3--3--2--2-------3-3--3--3-------------------
C -----------3-3--3--3-------------3-3--3--3--------------------
pm........... pm............
In The End
Tuning: C, G, C, F, A, D
* = Harmonics
D ------------------------------------------------------
A ------------------------------------------------------
F ---4-4--------------0---------------------------------
C -------5-4---4-4--4-----------------------------------
G -7----------------------------------------------------
C ------------------------------------------------------
Piano arranged for guitar
D -----------7*---------------12*--
A -----7*--------------7*----------
F -5*---------------5*-------------
C ----------------------------------
G ----------------------------------
C ----------------------------------
D ---------------------------------------------------
A ---------------------------------------------------
F -------------7-----5-------------------7-----5--4-
C -2-----5-----7-----5---0--2-----5-----7-----5--4-
G -2-----5-----5-----3---0--2-----5-----5-----3--2-
C -2-----5-----0---------0--2-----5-----0----------
Chorus/Bridge
D -------0-2-3-2--
A ----------------
F -----4----------
C ---5------------
G -7--------------
C ----------------
A Place For My Head
Tuning: C, G, C, F, A, D
Verse 1 and Verse 2 Part 1
D ---------------------------------------------------------------
A ---------------------------------------------------------------
F -------6-6-6-7-6-4---------------------------------------------
C 4---4-----------------7-7--5-5-5-5-5-7------------------------
G ---------------------------------------------------------------
C ---------------------------------------------------------------
Verse 2 Part 2
D ----------------------------------------------------------------
A ----------------------------------------------------------------
F 6-------2-------6-------2---------------------------------------
C 4-------0-------4-------0---------------------------------------
G 4-------0-------4-------0---------------------------------------
C 4-------0-------4-------0---------------------------------------
Chorus
D ----------------------------------------------------------------
A ----------------------------------------------------------------
F -----------6-7-6-4-2--2--2-2-----------------------------------
C 4--4--4-4--6-7-6-4-2--2--2-2-5-5-5-7--------------------------
G 4--4--4-4--4-5-4-2-0--0--0-0-5-5-5-7--------------------------
C 4--4--4-4--------------------5-5-5-7---------------------------
Ending
D -----------------------------------------------------------------
A -----------------------------------------------------------------
F -----------------------------------------------------------------
C 4-4---4-4-4-4---4-4-4---4-4-4-5-7------------------------------
G 4-4---4-4-4-4---4-4-4---4-4-4-5-7------------------------------
C 4-4---4-4-4-4---4-4-4---4-4-4-5-7------------------------------
Forgotten
Tuning (low to high): Db Ab Db Gb Bb Eb
x = mute
* = natural harmonic
p = pull off
/ = slide
All parts played with distortion, unless otherwise noted.
Riff 1: 
Eb---------------------------------------------
Bb---------------------------------------------
Gb-----------------------------------7*-------
Db----3p2---2---2-2-2--2-3p2--2----7*-------
Ab----3p2---2---2-2-2--2-3p2--2--------------
Db----3p2---2---2-2-2--2-3p2--2--------------
Riff 2:
Eb--------------------------------------------
Bb--------------------------------------------
Gb--------------------------------------------
Db----3p2---2---2-2-2--2-3p2--2-------------
Ab----3p2---2---2-2-2--2-3p2--2-------------
Db----3p2---2---2-2-2--2-3p2--2-------------
Repeat Riff 1
Riff 3:
Eb--------------------------------------------
Bb--------------------------------------------
Gb--------------------------------------------
Db----3p2---2---2-2-2--2-3---3--2-2/5-------
Ab----3p2---2---2-2-2--2-3---3--2-2/5-------
Db----3p2---2---2-2-2--2-3---3--2-2/5-------
The verses are various combinations of the following two riffs:
Verse Riff 1: (clean, w/ delay)
Eb--------7----5-------------------------------
Bb------5---5----5----------8------------------
Gb-----------------5----5-7--------------------
Db----7---------------7------------------------
Ab---------------------------------------------
Db---------------------------------------------
Verse Riff 2: (clean, w/ delay)
Eb--------7----5--------------------------------
Bb------5---5----5-----------------8------------
Gb-----------------5-----7p5h7p5-7-------------
Db----7----------------7------------------------
Ab----------------------------------------------
Db----------------------------------------------
Repeat Riff 1 and Riff 3
Chorus: (4x)
Eb---------------------------------------------------------------
Bb---------------------------------------------------------------
Gb----------------9/10-10-10-x----------------------------------
Db----7---7--x-x--9/10-10-10-x--10--10--x-x-9h10-10-10--7-7---
Ab----7---7--x-x--7/8--8--8--x--10--10--x-x-9h10-10-10--7-7----
Db----7---7--x-x----------------10--10--x-x-9h10-10-10--7-7----
Return to Verse Riffs
Repeat - in this order - Riffs 1, 2, 1, and 3
Repeat Chorus (4x)
Bridge Riff 1: (2x)
Eb----------------------------------------------------------------
Bb----------------------------------------------------------------
Gb----------------------------------------------------------------
Db--3---3-3-3-3--3-3-3-2--3--5----------------------------------
Ab--3---3-3-3-3--3-3-3-2--3--5----------------------------------
Db--3---3-3-3-3--3-3-3-2--3--5----------------------------------
Bridge Riff 2: (2x)
Eb---------------------------------------------------------------
Bb---------------------------------------------------------------
Gb---------------------------------------------------------------
Db--7---7--7-7---5--7---3---3-3-3-3--3-3-3-2--3--5-------------
Ab--7---7--7-7---5--7---3---3-3-3-3--3-3-3-2--3--5-------------
Db--7---7--7-7---5--7---3---3-3-3-3--3-3-3-2--3--5-------------
Bridge Riff 3: (1x)
Eb------------------------------------------------------------------
Bb------------------------------------------------------------------
Gb------------------------------------------------------------------
Db--7---7--7-7---5--7---3---3-3-3-3--3-3-3-2--3--3--3----2----5--
Ab--7---7--7-7---5--7---3---3-3-3-3--3-3-3-2--3--3--3----2----5--
Db--7---7--7-7---5--7---3---3-3-3-3--3-3-3-2--3--3--3----2----5--
Repeat Chorus (8x - last time clean)
Pushing Me Away
Tuning: C, G, C, F, A, D
Intro and Verse
D *12------------|------*12------|--------------|---------------
A -------*12-----|---*7------*12-|------*12----|*12----*7-----
F ----*7---------|*5-------------|---*7---------|-----------*7-
C ---------------|----------------|*7------------|----*7--------
G ------------*7-|---------------|-----------*7-|---------------
C ---------------|---------------|---------------|---------------
Chorus 1
D -------------------------------------------------------------------------------------
A -------------------------------------------------------------------------------------
F -----------------------5---5---5-5--5-5---5-5-----------------------2---2--2-4-----
C 2---2---2-2--2-2---2-2-5---5---5-5--5-5---5-5-5---5---5-5--5-5--5-5-2---2--2-4--0
G 2---2---2-2--2-2---2-2-3---3---3-3--3-3---3-3-5---5---5-5--5-5--5-5-0---0--0-2--0
C 2---2---2-2--2-2---2-2-------------------------5---5---5-5--5-5--5-5--------------0
Chorus 2
D -------------------------------------------------------------------------------------
A -------------------------------------------------------------------------------------
F 5---5---5-5--5-5---5-5-7---7---7-7--7-7---7-7-2---2---2-2--2-2---2-2-------------5
C 5---5---5-5--5-5---5-5-7---7---7-7--7-7---7-7-2---2---2-2--2-2---2-2-4---4--4-5--5
G 3---3---3-3--3-3---3-3-5---5---5-5--5-5---5-5-0---0---0-0--0-0---0-0-4---4--4-5--2
C ------------------------------------------------------------------------4---4--4-5---
Carousel
Intro (Flanger)
-------------------
-------------------
----9--------------
------9------------
--7-----7-8-8-8-7--
-------------------
Chorus
-----------------------------------------------------
-----------------------------------------------------
-----------------------------------------------------
--2-2-2--2-----3-3-3--3-----2-2-2--2-----3-3-3--3--
--2-2-2--2-----3-3-3--3-----2-2-2--2-----3-3-3--3--
--2-2-2--2-----3-3-3--3-----2-2-2--2-----3-3-3--3--
. . . . . . . . . . . . . . . .
Bridge
-----------------------------------------------
-----------------------------------------------
-----------------------------------------------
--2-2-2--2---2-2-2--2---2-2-2--2---2-2-2--2--
--2-2-2--2---2-2-2--2---2-2-2--2---2-2-2--2--
--2-2-2--2---2-2-2--2---2-2-2--2---2-2-2--2--
. . . . . . . . . . . . . . . .
End on...
------------
------------
------------
--2-2-2--2--
--2-2-2--2--
--2-2-2--2--
. . . .
My December
Standard tuning: 
eBGDAE
Verse( Fig. 1)
E |------------------------------------| 
B |------------------------------------| 
G |------------------------------------| 
D |-0-3-2-3--0-3-2-3----3-2-3----3-2-3-| 
A |-------------------3--------3-------| 
E |------------------------------------| 
Just repeat this throughout the whole song,
clean, with high bass and slightly muffled sound.
I suggest using your fingers instead of a pick.
And One
A ^ under tab means palm mute.
Tuning: D-A-D-G-B-E
\"Where should I start?\"
E---------------------------------------------------------
B---------------------------------------------------------
G-------------------------13------------------------------
D-----------------------------------------------------11--
A--4-4-4--4--7-7-7--7-7--------4-4-4--4--7-7-7--7-7-------
D--6-6-6--6--7-7-7--7-7--------6-6-6--6--7-7-7--7-7-------
   ^ ^ ^  ^  ^ ^ ^  ^ ^        ^ ^ ^  ^  ^ ^ ^  ^ ^
Around \"If anger\'s a gift...\", the \'possible harmonics\' go like this:
E-----|----|-----
B-----|----|-----
G--13-|-11-|-----
D-----|----|-11--
A-----|----|-----
D-----|----|-----
\"Keep it locked up inside...\"
E-----------------------
B-----------------------
G-----------------------
D--------7-----2-----0--
A--4-----7-----2-----0--
D--6-----7-----2-----0--
When it slows down:         \"It\'s too late...\"
E-------------------------|-----------------------------
B-------------------------|-----------------------------
G--9-8---6----------------|--9-8h9h8---6----------------
D----------9--------------|--------------9--------------
A--------------7-9---6-7--|------------------7-9---6-9--
D-------------------------|-----------------------------
Gtr 2. during \'softer\' \"Breaking a part of my heart...\" section:
E--------------------------------
B----------------14--------------
G--13------13--------13--11------
D------11--------------------11--
A--------------------------------
D--------------------------------
During \'harder\' \"Breaking a part of my heart...\" and \"Keep my distance\" section:
E-------------------|----------------------------|-----
B-------------------|----------------------------|-----
G-------------------|----------------------------|-----
D---------2--/--11--|-------------------------9--|-----
A--4-4-4--2--/--11--|--4----4-4-4--2-2-2-2-2-----|--8--
D--6-6-6--2--/--11--|--6----6-6-6--2-2-2-2-2-----|-----
   ^ ^ ^                    ^ ^ ^  ^ ^ ^ ^ ^
+ + + + + + + + + + + + + + + + + + + + + + + + + + + + + + + + + + + + 
Tuning: C#-G#-C#-F#-Bb-Eb
\"Where should I start?\"
Eb---------------------------------------------------------
Bb---------------------------------------------------------
F#-------------------------14------------------------------
C#-----------------------------------------------------12--
G#--0-0-0--0--8-8-8--8-8--------0-0-0--0--8-8-8--8-8-------
C#--0-0-0--0--8-8-8--8-8--------0-0-0--0--8-8-8--8-8-------
    ^ ^ ^  ^  ^ ^ ^  ^ ^        ^ ^ ^  ^  ^ ^ ^  ^ ^
Around \"If anger\'s a gift...\", the higher notes go like this:
Eb-----|----|-----
Bb-----|----|-----
F#--14-|-12-|-----
C#-----|----|-12--
G#-----|----|-----
C#-----|----|-----
\"Keep it locked up inside...\"
Eb-----------------------
Bb-----------------------
F#-----------------------
C#--0-----8-----3-----1--
G#--0-----8-----3-----1--
C#--0-----8-----3-----1--
When it slows down (1st time):  Rest of time:
Eb----------------------------|----------------------------------
Bb----------------------------|----------------------------------
F#--10-9---7------------------|--10-9h10h9---7-------------------
C#-----------10---------------|----------------10----------------
G#----------------8-10---7-8--|---------------------8-10---7-10--
C#----------------------------|----------------------------------
Gtr 2. during \'softer\' \"Breaking a part of my heart...\" section:
Eb--------------------------------
Bb----------------15--------------
F#--14------14--------14--12------
C#------12--------------------12--
G#--------------------------------
C#--------------------------------
During \'harder\' \"Breaking a part of my heart...\" and \"Keep my distance\" section:
Eb-------------------|-----------------------------|-----
Bb-------------------|-----------------------------|-----
F#-------------------|-----------------------------|-----
C#---------3--/--12--|--0----------------------10--|-----
G#--0-0-0--3--/--12--|--0----0-0-0--3-3-3-3-3------|--9--
C#--0-0-0--3--/--12--|--0----0-0-0--3-3-3-3-3------|-----
    ^ ^ ^                    ^ ^ ^  ^ ^ ^ ^ ^
+ + + + + + + + + + + + + + + + + + + + + + + + + + + + + + + + + + + + 
Tuning: Standard
\"Where should I start?\"
E---------------------------------------------------------
B---------------------------------------------------------
G-------------------------13------------------------------
D-----------------------------------------------------11--
A--4-4-4--4--7-7-7--7-7--------4-4-4--4--7-7-7--7-7-------
E--4-4-4--4--5-5-5--5-5--------4-4-4--4--5-5-5--5-5-------
   ^ ^ ^  ^  ^ ^ ^  ^ ^        ^ ^ ^  ^  ^ ^ ^  ^ ^
Around \"If anger\'s a gift...\", the \'possible harmonics\' go like this:
E-----|----|-----
B-----|----|-----
G--13-|-11-|-----
D-----|----|-11--
A-----|----|-----
E-----|----|-----
\"Keep it locked up inside...\"
E-----------------------
B-----------------------
G-----------------------
D--------7-----2--------
A--4-----7-----2-----5--
E--4-----5-----0-----5--
When it slows down:         \"It\'s too late...\"
E-------------------------|-----------------------------
B-------------------------|-----------------------------
G--9-8---6----------------|--9-8h9h8---6----------------
D----------9--------------|--------------9--------------
A--------------7-9---6-7--|------------------7-9---6-9--
E-------------------------|-----------------------------
Gtr 2. during \'softer\' \"Breaking a part of my heart...\" section:
E--------------------------------
B----------------14--------------
G--13------13--------13--11------
D------11--------------------11--
A--------------------------------
E--------------------------------
During \'harder\' \"Breaking a part of my heart...\" and \"Keep my distance\" section:
E-------------------|----------------------------|-----
B-------------------|----------------------------|-----
G-------------------|----------------------------|-----
D---------2--/--11--|-------------------------9--|-----
A--4-4-4--2--/--11--|--4----4-4-4--2-2-2-2-2-----|--8--
E--4-4-4--0--/--9---|--4----4-4-4--0-0-0-0-0-----|-----
   ^ ^ ^                    ^ ^ ^  ^ ^ ^ ^ ^
High Voltage
Tuning: Dropped D one half step down
C# G# C# F# A# D#
   [Intro] Whole song is clean guitar
-|--------------------------------------------------------------------------|-
-|--------------------------------------------------------------------------|-
-|--------------------------------------------------------------------------|-
-|--3-3--6--5--4--3---------------------------------------------------------|-
-|--------------------------------------------------------------------------|-
-|--------------------------------------------------------------------------|-
    Play 6 times
   [Verse]
-|--------------------------------------------------------------------------|-
-|--------------------------------------------------------------------------|-
-|--------------------------------------------------------------------------|-
-|--3-3-----1--4--1---------------------------------------------------------|-
-|-------4------------------------------------------------------------------|-
-|--------------------------------------------------------------------------|-
    Play 8 times
   [Chorus]
-|--------------------------------------------------------------------------|-
-|--------------------------------------------------------------------------|-
-|--------------------------------------------------------------------------|-
-|--3-3--6--5--4--3---------------------------------------------------------|-
-|--------------------------------------------------------------------------|-
-|--------------------------------------------------------------------------|-
    Play twice.
   [Verse]
-|--------------------------------|-----------------------------------------|-
-|--------------------------------|-----------------------------------------|-
-|--------------------------------|-----------------------------------------|-
-|--3-3-----1--4--1--3-3-----1--4-|--3-3-----1--4--1------------------------|-
-|-------4----------------4-------|-------4---------------------------------|-
-|--------------------------------|-----------------------------------------|-
                                     Play 6 times.
   [Chorus]
-|--------------------------------------------------------------------------|-
-|--------------------------------------------------------------------------|-
-|--------------------------------------------------------------------------|-
-|--3-3--6--5--4--3---------------------------------------------------------|-
-|--------------------------------------------------------------------------|-
-|--------------------------------------------------------------------------|-
    Play 4 times.
   [Chorus]
-|--------------------------------------------------------------------------|-
-|--------------------------------------------------------------------------|-
-|--------------------------------------------------------------------------|-
-|--3-3--6--5--4--3---------------------------------------------------------|-
-|--------------------------------------------------------------------------|-
-|--------------------------------------------------------------------------|-
    Play 4 times.
Step Up
A ^ under tab means palm mute.
Tuning: D-A-D-G-B-E
E---------------------------------------------
B--9-9-9--7--9--------------------------------
G---------------9--6-6--9--8-8----------------
D--------------------------------8-9--6-/-13--
A---------------------------------------------
D---------------------------------------------
E--------------------------------------------
B--------------------------------------------
G--------------------------------------------
D--6-7-/-14-13-----6-7-/-13-----6-7-/-14-13--
A--------------------------------------------
D--------------------------------------------
\"Using the waves of sound...\"
E---------------------------------
B---------------------------------
G---------------------------------
D--6-6--6--6-6--6--7-7-7--7-7--9--
A--6-6--6--6-6--6--7-7-7--7-7--9--
D--6-6--6--6-6--6--7-7-7--7-7--9--
\"Who can rock a rhyme like this...\"

Продолжаем грести бабос на ботах в Telegram.
Только в этот раз есть вариант автоматизировать это дело, привлекая рефералов. Вы можете заработать если »

E------------------------------------------------------ B------------------------------------------------------ G-----9-9--8-8---6---------------9-9--8-8-------------- D--6--9-9--8-8---6--4-4-4-----6--9-9--8-8----7--9-9-9-- A--6--7-7--6-6---4--4-4-4-----6--7-7--6-6----7--9-9-9-- D--6----------------4-4-4-----6--------------7--9-9-9-- When drums stop: E----------------------------------------- B----------------------------------------- G----------------------------------------- D--------6-----4--------------6-----4----- A-----6-----6-----6--------6-----6-----6-- D--6--------------------7----------------- When Chester starts humming: E-------------------------------- B-------------------------------- G-------------------------------- D-----------6--7--6-----6--7--6-- A--6-----6-----------6----------- D-----6-------------------------- + + + + + + + + + + + + + + + + + + + + + + + + + + + + + + + + + + + + Tuning: C#-G#-C#-F#-Bb-Eb Eb-------------------------------------------------- Bb--10-10-10--8--10--------------------------------- F#------------------10--7-7--10--9-9---------------- C#------------------------------------9-10--7-/-14-- G#-------------------------------------------------- C#-------------------------------------------------- Eb----------------------------------------------- Bb----------------------------------------------- F#----------------------------------------------- C#--9-10-/-15-14-----9-10-/-14-----9-10-/-15-14-- G#----------------------------------------------- C#----------------------------------------------- \"Using the waves of sound...\" Eb---------------------------------- Bb---------------------------------- F#---------------------------------- C#--7-7--7--7-7--7--8-8-8--8-8--10-- G#--7-7--7--7-7--7--8-8-8--8-8--10-- C#--7-7--7--7-7--7--8-8-8--8-8--10-- \"Who can rock a rhyme like this...\" Eb------------------------------------------------------------- Bb------------------------------------------------------------- F#-----10-10--9-9---7---------------10-10--9-9----------------- C#--7--10-10--9-9---7--5-5-5-----7--10-10--9-9----8--10-10-10-- G#--7--8--8---7-7---5--5-5-5-----7--8--8---7-7----8--10-10-10-- C#--7------------------5-5-5-----7----------------8--10-10-10-- When drums stop: Eb----------------------------------------- Bb----------------------------------------- F#----------------------------------------- C#--------7-----5--------------7-----5----- G#-----7-----7-----7--------7-----7-----7-- C#--7--------------------8----------------- When Chester starts humming: Eb-------------------------------- Bb-------------------------------- F#-------------------------------- C#-----------7--8--7-----7--8--7-- G#--7-----7-----------7----------- C#-----7-------------------------- + + + + + + + + + + + + + + + + + + + + + + + + + + + + + + + + + + + + Tuning: Standard E--------------------------------------------- B--9-9-9--7--9-------------------------------- G---------------9--6-6--9--8-8---------------- D--------------------------------8-9--6-/-13-- A--------------------------------------------- E--------------------------------------------- E-------------------------------------------- B-------------------------------------------- G-------------------------------------------- D--8-9-/-14-13-----8-9-/-13-----8-9-/-14-13-- A-------------------------------------------- E-------------------------------------------- \"Using the waves of sound...\" E--------------------------------- B--------------------------------- G--------------------------------- D--6-6--6--6-6--6--7-7-7--7-7--9-- A--6-6--6--6-6--6--7-7-7--7-7--9-- E--4-4--4--4-4--4--5-5-5--5-5--7-- \"Who can rock a rhyme like this...\" E------------------------------------------------------ B------------------------------------------------------ G-----9-9--8-8---6---------------9-9--8-8-------------- D--6--9-9--8-8---6--4-4-4-----6--9-9--8-8----7--9-9-9-- A--6--7-7--6-6---4--4-4-4-----6--7-7--6-6----7--9-9-9-- E--4----------------2-2-2-----4--------------5--7-7-7-- When drums stop: E----------------------------------------- B----------------------------------------- G----------------------------------------- D--------6-----4--------------6-----4----- A-----6-----6-----6--------6-----6-----6-- E--4--------------------5----------------- When Chester starts humming: E-------------------------------- B-------------------------------- G-------------------------------- D-----------6--7--6-----6--7--6-- A--6-----6-----------6----------- E-----4-------------------------- The Morning After Tuning: Dropped D one half step down C# G# C# F# A# D# [Intro] Accoustic -|--------------------------------------------------------------------------|- -|--------------------------------------------------------------------------|- -|--------------------------------------------------------------------------|- -|-4--x-4-4--x-4-4--x-2-x-5-5-2---------------------------------------------|- -|-4--x-4-4--x-4-4--x-2-x-5-5-2---------------------------------------------|- -|-4--x-4-4--x-4-4--x-2-x-5-5-2---------------------------------------------|- Play 8 times. [Chorus] -|--------------------------------------------------------------------------|- -|--------------------------------------------------------------------------|- -|-4--x-4-4-2---------------------------------------------------------------|- -|-4--x-4-4-2-5--x-5--5-5-2-4--x-4-4--x-4-4--x-2-x-5-5-2--------------------|- -|-2--x-2-2-0-5--x-5--5-5-2-4--x-4-4--x-4-4--x-2-x-5-5-2--------------------|- -|------------5--x-5--5-5-2-4--x-4-4--x-4-4--x-2-x-5-5-2--------------------|- Play twice. [Verse] -|--------------------------------------------------------------------------|- -|--------------------------------------------------------------------------|- -|--------------------------------------------------------------------------|- -|-4--x-4-4--x-4-4--x-2-x-5-5-2---------------------------------------------|- -|-4--x-4-4--x-4-4--x-2-x-5-5-2---------------------------------------------|- -|-4--x-4-4--x-4-4--x-2-x-5-5-2---------------------------------------------|- Play 4 times. [Chorus] -|--------------------------------------------------------------------------|- -|--------------------------------------------------------------------------|- -|-4--x-4-4-2---------------------------------------------------------------|- -|-4--x-4-4-2-5--x-5--5-5-2-4--x-4-4--x-4-4--x-2-x-5-5-2--------------------|- -|-2--x-2-2-0-5--x-5--5-5-2-4--x-4-4--x-4-4--x-2-x-5-5-2--------------------|- -|------------5--x-5--5-5-2-4--x-4-4--x-4-4--x-2-x-5-5-2--------------------|- Play twice. [Chorus] -|--------------------------------------------------------------------------|- -|--------------------------------------------------------------------------|- -|-4--x-4-4-2---------------7--x-7--7-7-------------------------------------|- -|-4--x-4-4-2-5--x-5--5-5-0-7--x-7--7-7-0-7--x-7--7-7-0---------------------|- -|-2--x-2-2-0-5--x-5--5-5-0-5--x-5--5-5-0-7--x-7--7-7-0---------------------|- -|------------5--x-5--5-5-0-------------0-7--x-7--7-7-0---------------------|- Play twice. [Chorus] -|--------------------------------------------------------------------------|- -|--------------------------------------------------------------------------|- -|-4--x-4-4-2---------------7--x-7--7-7-------------------------------------|- -|-4--x-4-4-2-5--x-5--5-5-0-7--x-7--7-7-0-7777777777777775------------------|- -|-2--x-2-2-0-5--x-5--5-5-0-5--x-5--5-5-0-7777777777777775------------------|- -|------------5--x-5--5-5-0-------------0-7777777777777775------------------|- Play once. [Verse] -|--------------------------------------------------------------------------|- -|--------------------------------------------------------------------------|- -|--------------------------------------------------------------------------|- -|-4--x-4-4--x-4-4--x-2-x-5-5-2---------------------------------------------|- -|-4--x-4-4--x-4-4--x-2-x-5-5-2---------------------------------------------|- -|-4--x-4-4--x-4-4--x-2-x-5-5-2---------------------------------------------|- Play 8 times. [Chorus] -|--------------------------------------------------------------------------|- -|--------------------------------------------------------------------------|- -|-4--x-4-4-2---------------------------------------------------------------|- -|-4--x-4-4-2-5--x-5--5-5-2-4--x-4-4--x-4-4--x-2-x-5-5-2--------------------|- -|-2--x-2-2-0-5--x-5--5-5-2-4--x-4-4--x-4-4--x-2-x-5-5-2--------------------|- -|------------5--x-5--5-5-2-4--x-4-4--x-4-4--x-2-x-5-5-2--------------------|- Play twice. [Chorus] -|--------------------------------------------------------------------------|- -|--------------------------------------------------------------------------|- -|-4--x-4-4-2---------------7--x-7--7-7-------------------------------------|- -|-4--x-4-4-2-5--x-5--5-5-0-7--x-7--7-7-0-7--x-7--7-7-0---------------------|- -|-2--x-2-2-0-5--x-5--5-5-0-5--x-5--5-5-0-7--x-7--7-7-0---------------------|- -|------------5--x-5--5-5-0-------------0-7--x-7--7-7-0---------------------|- Play twice. [Chorus] -|--------------------------------------------------------------------------|- -|--------------------------------------------------------------------------|- -|-4--x-4-4-2---------------7--x-7--7-7-------------------------------------|- -|-4--x-4-4-2-5--x-5--5-5-0-7--x-7--7-7-0-7777777777777775-4----------------|- -|-2--x-2-2-0-5--x-5--5-5-0-5--x-5--5-5-0-7777777777777775-4----------------|- -|------------5--x-5--5-5-0-------------0-7777777777777775-4----------------|- Play once. Part Of Me A ^ under tab means palm mute. Tuning: D-A-D-G-B-E E---------------------------------- B---------------------------------- G---------------------------------- D---------------------------------- A------------7-7-------7-7-7-7--7-- D--6-6--6-6-------6-6-------------- ^ ^ ^ ^ ^ ^ ^ ^ ^ ^ ^ ^ ^ \"Part of me won\'t go away...\" E--------------------------------------------------------------------- B--------------------------------------------------------------------- G--------------------------------------------------------------------- D--6---6---6---6---9---9---4---4-----6---6---6---6---8---8---4---4---- A----6---6---6---6---7---7---4---4-----6---6---6---6---6---6---4---4-- D--------------------------------------------------------------------- \"Cut myself free willingly...\" E------------------------------------------- B------------------------------------------- G------------------------------------------- D--2--1----2--1----2--1----2--1--x-x--2--4-- A--2--1----2--1----2--1----2--1--x-x--2--4-- D--2--1----2--1----2--1----2--1--x-x--2--4-- \"I feel it everyday...\" E------------------------------------------------------------------------------ B------------------------------------------------------------------------------ G-------------9-9---------9-9-9-9--9-------------11-11---------11-11-11-11-11-- D--6-6--6-6---9-9---6-6---9-9-9-9--9--6-6--6-6---11-11---6-6---11-11-11-11-11-- A--6-6--6-6---7-7---6-6---7-7-7-7--7--6-6--6-6---9--9----6-6---9--9--9--9--9--- D--6-6--6-6---------6-6---------------6-6--6-6-----------6-6------------------- \"Alive of me, inside of me...\" E------------------------------------------------- B------------------------------------------------- G--8-8--8-8--9-8-------8--8-8--8-8--8-8--8-8--11-- D--8-8--8-8--9-8---9-8-8--8-8--8-8--8-8--8-8--11-- A--6-6--6-6--7-6---9-8-6--7-7--7-7--7-7--7-7--9--- D------------------9-8---------------------------- + + + + + + + + + + + + + + + + + + + + + + + + + + + + + + + + + + + + Tuning: C#-G#-C#-F#-Bb-Eb Eb---------------------------------- Bb---------------------------------- F#---------------------------------- C#---------------------------------- G#------------8-8-------8-8-8-8--8-- C#--7-7--7-7-------7-7-------------- ^ ^ ^ ^ ^ ^ ^ ^ ^ ^ ^ ^ ^ \"Part of me won\'t go away...\" Eb----------------------------------------------------------------------- Bb----------------------------------------------------------------------- F#----------------------------------------------------------------------- C#--7---7---7---7---10---10---5---5-----7---7---7---7---9---9---5---5---- G#----7---7---7---7----8----8---5---5-----7---7---7---7---7---7---5---5-- C#----------------------------------------------------------------------- \"Cut myself free willingly...\" Eb------------------------------------------- Bb------------------------------------------- F#------------------------------------------- C#--3--2----3--2----3--2----3--2--x-x--3--5-- G#--3--2----3--2----3--2----3--2--x-x--3--5-- C#--3--2----3--2----3--2----3--2--x-x--3--5-- \"I feel it everyday...\" Eb-------------------------------------------------------------------------------------- Bb-------------------------------------------------------------------------------------- F#-------------10-10---------10-10-10-10--10-------------12-12---------12-12-12-12--12-- C#--7-7--7-7---10-10---7-7---10-10-10-10--10--7-7--7-7---12-12---7-7---12-12-12-12--12-- G#--7-7--7-7---8--8----7-7---8-8-8-8--8---8---7-7--7-7---10-10---7-7---10-10-10-10--10-- C#--7-7--7-7-----------7-7--------------------7-7--7-7-----------7-7-------------------- \"Alive of me, inside of me...\" Eb----------------------------------------------------------- Bb----------------------------------------------------------- F#--9-9--9-9--10-9--------9--10-10--10-10--10-10--10-10--12-- C#--9-9--9-9--10-9---10-9-9--10-10--10-10--10-10--10-10--12-- G#--7-7--7-7--8--7---10-9-7--8--8---8--8---8--8---8--8---10-- C#-------------------10-9------------------------------------ + + + + + + + + + + + + + + + + + + + + + + + + + + + + + + + + + + + + Tuning: Standard E---------------------------------- B---------------------------------- G---------------------------------- D---------------------------------- A------------7-7-------7-7-7-7--7-- E--4-4--4-4-------4-4-------------- ^ ^ ^ ^ ^ ^ ^ ^ ^ ^ ^ ^ ^ \"Part of me won\'t go away...\" E--------------------------------------------------------------------- B--------------------------------------------------------------------- G--------------------------------------------------------------------- D--6---6---6---6---9---9---4---4-----6---6---6---6---8---8---4---4---- A----6---6---6---6---7---7---4---4-----6---6---6---6---6---6---4---4-- E--------------------------------------------------------------------- \"Cut myself free willingly...\" E------------------------------------------- B------------------------------------------- G------------------------------------------- D--------------------------------x-x--2--4-- A--7--6----7--6----7--6----7--6--x-x--2--4-- E--7--6----7--6----7--6----7--6--x-x--0--2-- \"I feel it everyday...\" E------------------------------------------------------------------------------ B------------------------------------------------------------------------------ G-------------9-9---------9-9-9-9--9-------------11-11---------11-11-11-11-11-- D--6-6--6-6---9-9---6-6---9-9-9-9--9--6-6--6-6---11-11---6-6---11-11-11-11-11-- A--6-6--6-6---7-7---6-6---7-7-7-7--7--6-6--6-6---9--9----6-6---9--9--9--9--9--- E--4-4--4-4---------4-4---------------4-4--4-4-----------4-4------------------- \"Alive of me, inside of me...\" E------------------------------------------------- B------------------------------------------------- G--8-8--8-8--9-8-------8--8-8--8-8--8-8--8-8--11-- D--8-8--8-8--9-8---9-8-8--8-8--8-8--8-8--8-8--11-- A--6-6--6-6--7-6---9-8-6--7-7--7-7--7-7--7-7--9--- E------------------7-6---------------------------- Cure For The Itch ----------------------------------------------------- ----------------------------------------------------- ----------------------------------------------------- ----------------------------------------------------- 9-12-7-5-9-12-7-5-9-12-7-5--------------------------- 7-10-5-3-7-10-5-3-7-10-5-3--------------------------- вторая версия: |----------------------------- |----------------------------- |----------------------------- |---8-8-8-9-8-6--------------- |-6-------------9-9-8-8-8-9-8- |----------------------------- Somewhere I Belong Tuning: half step down, Drop-D. (Low to High) Db Ab Db Gb Bb Eb a.k.a. C# G# C# F# A# D# Intro Gtr 1 (clean w/ a backward loop effect) (Rhythm Fig. 1) Eb||--------------------------| Bb||o-(3)--------------------o| Gb||---4-----4-----6-----4----| repeat 2x Db||---4-----5-----7----------| Ab||o--------------------5---o| Db||--------------------------| Gtr 2 (clean) (Rhy. Fig. 2), Gtr 1 plays Fig. 1 two times |---------5-----------5----| |o-5-7--7---7--5-7--7---7-o| |--------------------------| 4x |--------------------------| |o------------------------o| |--------------------------| Gtr 3 (w/ distortion) on last repeat |--------------------------| |--------------------------| |-4+=======================| |-x+===volume swell========| |-2+=======================| |--------------------------| Gtr 3 1.__________________ 2.___________________ |---------------------|--------------------|---------------------| |o-------------------o|--------------------|---------------------| |---------------------|--------------------|---------------------| |-4-4-4-4-4-0-0-0-0-0-|5-5-5-5-5-2-2-2-2-2-|-7-7-7-7-7-2-2-2-2-2-| |o2-2-2-2-2-0-0-0-0-0o|5-5-5-5-5-2-2-2-2-2-|-7-7-7-7-7-2-2-2-2-2-| |-4-4-4-4-4-0-0-0-0-0-|5-5-5-5-5-2-2-2-2-2-|-7-7-7-7-7-2-2-2-2-2-| Gtr 4 (w/ dist.) 1.__________________ 2._________________(Fill 1) |---------------------|--------------------|---------------------|---| |o-------------------o|--------------------|---------------------|---| |-8-8-8-8-8-9-9-9-9-9-|1111111111-9-9-9-9-9|-6-6-6-6-6-4-4-4-4-4-|-4=| |-x-x-x-x-x-x-x-x-x-x-|x-x-x-x-x--x-x-x-x-x|-x-x-x-x-x-x-x-x-x-x-|-x-| |o6-6-6-6-6-7-7-7-7-7o|9-9-9-9-9--7-7-7-7-7|-4-4-4-4-4-2-2-2-2-2-|-2=| |---------------------|--------------------|---------------------|---| Pre-Verse Gtr 1 w/ Fig. 1 one time Gtr 4 w/ Fill 1 Verse 1 Gtr 1 w/ Fig 1 four times Gtr 2 w/ Fig 2 eight times Pre-Chorus Gtr 3 (Fill 2) |-------|-------| |-------|-------| |-------|-------| [*all natural harmonics] (lay finger over fretbar w/o pushing down) |-[44444|44444]-| d = downstroke |-[44444|44444]-| u = upstroke |-[44444|44444]-| dudud ududu *Note: These harmonics can also be performed at the 9th fret* Chorus (Rhy. Fig. 3) Gtr 3 1.,2.,3.____________ 4.___________________ |---------------------|--------------------|---------------------| |o-------------------o|--------------------|---------------------| |---------------------|--------------------|---------------------| |-4-4-4-4-4-0-0-0-0-0-|5-5-5-5-5-2-2-2-2-2-|-7-7-7-7-7-2-2-2-2-2-| |o2-2-2-2-2-0-0-0-0-0o|5-5-5-5-5-2-2-2-2-2-|-7-7-7-7-7-2-2-2-2-2-| |-4-4-4-4-4-0-0-0-0-0-|5-5-5-5-5-2-2-2-2-2-|-7-7-7-7-7-2-2-2-2-2-| Gtr 4 1.,2.,3.____________ 4.___________________ |---------------------|--------------------|---------------------| |o-------------------o|--------------------|---------------------| |-8-8-8-8-8-9-9-9-9-9-|1111111111-9-9-9-9-9|-6-6-6-6-6-4-4-4-4-4-| |-x-x-x-x-x-x-x-x-x-x-|x-x-x-x-x--x-x-x-x-x|-x-x-x-x-x-x-x-x-x-x-| |o6-6-6-6-6-7-7-7-7-7o|9-9-9-9-9--7-7-7-7-7|-4-4-4-4-4-2-2-2-2-2-| |---------------------|--------------------|---------------------| Verse 2 Gtr 1 w/ Fig 1 four times Gtr 2 w/ Fig 2 eight times Pre-Chorus Gtr 3 w/ half of Fill 2 Chorus Gtr 3 and Gtr 4 w/ Fig. 3 Bridge Gtr 3 and Gtr 4 (Rhy. Fig. 4) |------------------------------------------------------------| |o----------------------------------------------------------o| |--------11-11----------11-11----------11-11----------6/7\\6*-| 2x |--9---9-x--x-----5---5-x--x-----7---7-x--x-----2---2-x------| |o-9---9-9--9-----5---5-9--9-----7---7-9--9-----2---2-4/5\\4*o| |--9---9----------5---5----------7---7----------2---2--------| *slide without restrumming |-----------------------------------------------------------| |-----------------------------------------------------------| |-------11-11----------14-14----------11-11----------6/7\\6*-| |-9---9-x--x-----5---5-x--x-----7---7-x--x-----2---2-x------| |-9---9-9--9-----5---5-12-12----7---7-9--9-----2---2-4/5\\4*-| |-9---9----------5---5----------7---7----------2---2--------| Gtr 3 w/ Fig. 4 one time ending with Fill 1 over Gtr 1 w/ Fig. 1 Gtr 3 w/ Fill 2 Outro Chorus Gtr 3 and Gtr 4 w/ Fig. 3 twice Outro Gtr 3 3x |----------------------------|---------------||| |o--------------------------o|---------------||| |----------------------------|---------------||| |--4-4-4-4-4-4-4--[4-4-4-4]--|-4-4-4-4-4-4-4-||| |o-2-2-2-2-2-2-2--[4-4-4-4]-o|-2-2-2-2-2-2-2-||| |--4-4-4-4-4-4-4--[4-4-4-4]--|-4-4-4-4-4-4-4-||| d u d u Lying from You Half step down tune Intro e|| ---------------------------------.|| B|| ---------------------------------.|| G||.-----------5--7-6-5--8-7-6-5-----.|| 2 times D||.-----------5--7-6-5--8-7-6-5--4--.|| A|| -----------3--5-4-3--6-5-4-3--4--.|| E|| -x-x-x-x---3--5-4-3--6-5-4-3--2--.|| Main (When I pretend, everything is what I want it be...) 3 times last time e|| ---------------------------------|--------------------------------- || B|| ---------------------------------|--------------------------------- || G||.--7-7-------------------5-5-5-5--|--7-7----------------------------.|| D||.--7-7-----------3-3-----5-5-5-5--|--7-7------------3-3-3---5-5-5-5-.|| A|| --5-5-----------3-3-----3-3-3-3--|--5-5------------3-3-3---5-5-5-5- || E|| --5-5-----------1-1-----3-3-3-3--|--5-5------------1-1-1---3-3-3-3- || Chorus (You...I wanna be close beside so let me go...) 2 times e|| ---------------------------------|--------------------------------- || B|| ---------------------------------|--------------------------------- || G||.--7-7----------------------5-5-5-|--3-3----------------------5-5-5-.|| D||.--7-7----------------3-----5-5-5-|--3-3---------------5------5-5-5-.|| A|| --5-5--7777-3333-55--3-----3-3-3-|--1-1--7777-3333-55-5------3-3-3- || E|| --5-5----------------1-----3-3-3-|--1-1---------------3------3-3-3- || Bridge (This isn_t what I wanted to be, I never thought what I said would have you running from me...) 8 times e|| ------------------------.|| B|| ------------------------.|| G||.--5--7-6-5--8-7-6-5-----.|| D||.--5--7-6-5--8-7-6-5--4--.|| A|| --3--5-4-3--6-5-4-3--4--.|| E|| --3--5-4-3--6-5-4-3--2--.|| Chorus Figure.09 intro 2 times part 1 repeat first last e|| ----------------------||-------------- ||------------------ || B|| ----------------------||-------------- ||------------------ || G||.--6------6------6----*||--------------.||------------------.|| D||.---------------------*||--------------.||------------------.|| A|| --4-4-7--4-4-7--4-4-7-||-4^5-4^5-4^5-- ||-4^5-5-5-5^4-5^4-- || E|| ----------------------||-------------- ||-4^5-5-5-5^4-5^4-- || part 2 2 times e|| -------------------------------------------.|| B|| -------------------------------------------.|| G||.----6-------6-------6----------------------.|| D||.------6-------6-------6--------------------.|| A|| --4---7---4---7---4---7--4^5-5-5-5^4-5^4--- || E|| --4---0---4---0---4---0--4^5-5-5-5^4-5^4--- || main part 1 2 times e|| --------------------------------------------.|| B|| --------------------------------------------.|| G||.----6o-------6o------6o---------------------.|| D||.--------------------------------------------.|| A|| --4o------4o------4o------4^5-5-5-5^4-5^4--- || E|| --4o------4o------4o------4^5-5-5-5^4-5^4--- || o - mute after playing part 2 2 times e|| --------------------------------------------.|| B|| --------------------------------------------.|| G||.----6--------6-------6----------------------.|| D||.------6-------6-------6---------------------.|| A|| --4---7---4---7---4---7---4^5-5-5-5^4-5^4--- || E|| --4-------4-------4-------4^5-5-5-5^4-5^4--- || bridge e|| ---------------------------- || B|| ---------------------------- || G||.----------------------------.|| D||.-------7-------7-------7----.|| A|| --4----7--4----7--4----7--4- || E|| --4-------4-------4-------4- || chorus 3 times e|| ------------------------------------- || B|| ------------------------------------- || G||.-----------6-------------------------.|| D||.-----------6------7-------2-----4--6-.|| A|| -----------4------7-------2-----4--6- || E|| -----------4------5-------0-----2--4- || [and now...] last time e|| ------------------------------------- || B|| ------------------------------------- || G||.-----------6-----------------------7-.|| D||.-----------6------7-------2-----6--7-.|| A|| -----------4------7-------2-----6--5- || E|| -----------4------5-------0-----4--5- || [you become a part of me...] ... intro part2 main chorus intro part1 ... second chorus 4 times e|| --------------------------|------------------------- || B|| --------------------------|------------------------- || G||.--7\\6--6--6--6/7/9--------|---7\\6--6--6--6/7/9------.|| D||.--7\\6--6--6--6/7/9--------|---7\\6--6--6--6/7/9------.|| A|| --5\\4--4--4--4/5/7----8---|---5\\4--4--4--4/5/7----4- || E|| --5\\4--4--4--4/5/7--------|---5\\4--4--4--4/5/7------ || ^ ^ ^ ^ P.M. P.M. [Get away from me! Give me my space back you gotta just Go! ...] chorus Don\'t Stay Intro: D#|-----------------------------------| A#|-----------------------------------| F#|-----------------------------------| C#|-6-6-6-6--2--4-4-4--7--6-----------| G#|-4-4-4-6--2--4-4-4--7--6-----------| C#|-6-6-6-6--2--4-4-4--7--6-----------| D#|----------------------------------| A#|----------------------------------| F#|----------------------------------| C#|-6-6-6-6--2--0-0-0-0-0------------| G#|-4-4-4-6--2--0-0-0-0-0------------| C#|-6-6-6-6--2--0-0-0-0-0------------| Chorus D#|------------------------------| A#|------------------------------| F#|------------------------------| C#|-6-6--7--9--4--6--2--0--------| G#|-4-6--7--9--4--6--2--0--------| C#|-6-6--7--9--4--6--2--0--------| Bridge D#|---------------------------------------------------| A#|----------------12-12-12-12-12-12-15---------------| F#|----------------x--x--x--x--x--x--x----------------| C#|-6-6-6-6--7-7---9--9--9--9--9--9--12---------------| G#|-4-4-4-4--5-5--------------------------------------| C#|-6-6-6-6--7-7--------------------------------------| D#|------------------------------------------------------| A#|------------------------------------------------------| F#|------------------------------------------------------| C#|-6-6-6-6--7-7--0-0-0-0-0-0-0-0-0-0-0-0....------------| G#|-4-4-4-4--5-5--0-0-0-0-0-0-0-0-0-0-0-0....------------| C#|-6-6-6-6--7-7--0-0-0-0-0-0-0-0-0-0-0-0....------------| Faint Gt. 1:Intro and Chorus Eb|----------------------------------- Bb|----------------------------------- Gb|----------------------------------- Db|-0-0--7--5--5-5--7--3------------------------ Ab|-0-0--7--5--5-5--7--3----------------------- Db|-0-0--7--5--5-5--7--3----------------------- Gt. 2: Intro and Chorus |play at start| |of intro | Eb|-------------| Bb|-------------| Gb|--7-7-7-7----| Db|--X-X-X-X----| Ab|--5-5-5-5----| Db|-------------| Eb|------------------------------------------ Bb|-------------------|---------------------- Gb|-7-7-7/14-14\\12-12-|-12-12-12/14-14\\10-10- Db|-X-X-X/X--X-\\X--X--|-X--X--X-/X--X-\\X--X-- Ab|-5-5-5/12-12\\10-10-|-10-10-10/12-12\\8--8-- Db|-------------------|---------------------- Both guitars:Verse Eb|----------------------------------- Bb|----------------------------------- Gb|----------------------------------- Db|-2-2--2-2--2-2--7-7--5-5----------- Ab|-2-2--2-2--2-2--7-7--5-5----------- Db|-2-2--2-2--2-2--7-7--5-5----------- Both guitars:Interlude Eb|----------------------------------- Bb|----------------------------------- Gb|----------------------------------- Db|-0-7-5-2-3-2------------------------------ Ab|-0-7-5-2-3-2----------------------------- Db|-0-7-5-2-3-2-----------------------------








О сайтеАккордыХит-парадПоискУроки ФорумыИщу песню
ПрограммыСвежачок-сПодпискаСтатьи
Яндекс.Метрика