Табулатура H.I.M. | In Joy And Sorrow гитара табулатуры уроки тексты песен H.I.M. текст lyrics песня аккорды песни ноты нота электрогитара струна  
   А Б В Г Д Е Ж З И К Л М Н О П Р С Т У Ф Х Ч Ш Ы Э Ю Я       Разные песни
1-9 A B C D E F G H I J K L M N O P Q R S T U V W Y Z      Все исполнители in english

    



группа H.I.M., Табулатура песни In Joy And Sorrow

Группа: H.I.M. - другие аккорды (273),   о группе (2 статей),   диски (5),   фотографии (82)
Табулатура песни: In Joy And Sorrow
Просмотров: 2986
Подобрал: Кс-82




    
Acoustic Guitar
|---------------------------|--------------0-----------|
|---------------3-----------|-----------------3-----3--|
|---------0--------0-----0--|--------0-----------0-----|
|------2-----2--------2-----|-----0-----0--------------|
|---3-----------------------|--2-----------------------|
|---------------------------|--------------------------|HIMHIM
    beim 2. mal Violaeinsatz
|--------------------------|---------------------------|
|--------------1-----------|--0-----------1------------|
|--------2--------2--------|-----2-----------2---------|
|-----2-----2--------2-----|--------2------------------|
|--0--------------------0--|-----------0--------0--2---|
|--------------------------|---------------------------|
|--------------------------|--------------0-----------|
|--------------3-----------|-----------------3-----3--|
|--------0--------0-----0--|--------0-----------0-----|
|-----2-----2--------2-----|-----0-----0--------------|
|--3-----------------------|--2-----------------------|
|--------------------------|--------------------------|
|--------------1-----------|--------------------------|
|--------3--------3-----3--|--------------1-----------|
|-----2-----2--------2-----|--------2--------2--------|
|--0-----------------------|-----2-----2--------------|
|--------------------------|--0-----------------0--2--|
|--------------------------|--------------------------|
|--------------------------|--------------0-----------|
|--------------3-----------|-----------------3-----3--|
|--------0--------0-----0--|--------0-----------0-----|
|-----2-----2--------2-----|-----0-----0--------------|
|--3-----------------------|--2-----------------------|
|--------------------------|--------------------------|
|--------------------------|-------------------0------|
|--------------------------|-------------------0------|
|--------------0-----------|--1----------------1------|
|--------2--------2--------|-----2-------------2------|
|-----2-----2--------2--2--|--------2--2-------2------|
|--0-----------------------|-------------------0------|
    Refrain 1,2
     
|--0-0--0--0--0--0---|-0--0--0--0--0--0--|--3---3--3---3--3--3--|
|--1-1--1--1--1--1---|-1--1--1--1--1--1--|--3---3--3---3--3--3--|
|--2-2--2--2--2--2---|-0--0--0--0--0--0--|--0---0--0---0--0--0--|
|--2-2--2--2--2--2---|-2--2--2--2--2--2--|--0---0--0---0--0--0--|
|--0-0--0--0--0--0---|-3--3--3--3--3--3--|--2---2--2---2--2--2--|
|--------------------|-------------------|--3---3--3---3--3--3--|
     
|--1-1--1--1--1--1---|-0--0--0--0--0--0--|--3--3--3----3--3--3--|
|--1-1--1--1--1--1---|-1--1--1--1--1--1--|--3--3--3----3--3--3--|
|--2-2--2--2--2--2---|-0--0--0--0--0--0--|--0--0--0----0--0--0--|
|--3-3--3--3--3--3---|-2--2--2--2--2--2--|--0--0--0----0--0--0--|
|--3-3--3--3--3--3---|-3--3--3--3--3--3--|--2--2--2----2--2--2--|
|--1-1--1--1--1--1---|-------------------|--3--3--3----3--3--3--|
    
|--0-0--0--0--0--0---|-0--0--0--0--0--0--|--3--3--3----3--3--3--|
|--1-1--1--1--1--1---|-1--1--1--1--1--1--|--3--3--3----3--3--3--|
|-2-2--2--2--2--2----|-0--0--0--0--0--0--|--0--0--0----0--0--0--|
|-2-2--2--2--2--2----|-2--2--2--2--2--2--|--0--0--0----0--0--0--|
|--0-0--0--0--0--0---|-3--3--3--3--3--3--|--2--2--2----2--2--2--|
|--------------------|-------------------|--3--3--3----3--3--3--|
      
|--1--1--1--1--1--1---|-0--0--0--0--0--0--|-3--3--3----3--3--3--|
|--1--1--1--1--1--1---|-1--1--1--1--1--1--|-3--3--3----3--3--3--|
|--2--2--2--2--2--2---|-0--0--0--0--0--0--|-0--0--0----0--0--0--|
|--3--3--3--3--3--3---|-2--2--2--2--2--2--|-0--0--0----0--0--0--|
|--3--3--3--3--3--3---|-3--3--3--3--3--3--|-2--2--2----2--2--2--|
|--1--1--1--1--1--1---|-------------------|-3--3--3----3--3--3--|
    Refrain 3
     
|---2----2--2----2--2--2---|--2----2--2----2--2--2--|
|---3----3--3----3--3--3---|--3----3--3----3--3--3--|
|---4----4--4----4--4--4---|--2----2--2----2--2--2--|
|---4----4--4----4--4--4---|--0----0--0----0--0--0--|
|---2----2--2----2--2--2---|------------------------|
|--------------------------|------------------------|
                          
|-0-0--0--0--0--0--|--3--3--3--3--3--3---|-2--2--2----2--2--2--|
|-2-2--2--2--2--2--|--0--0--0--0--0--0---|-3--3--3----3--3--3--|
|-2-2--2--2--2--2--|--0--0--0--0--0--0---|-2--2--2----2--2--2--|
|-2-2--2--2--2--2--|--0--0--0--0--0--0---|-0--0--0----0--0--0--|
|-0-0--0--0--0--0--|--2--2--2--2--2--2---|---------------------|
|------------------|--3--3--3--3--3--3---|---------------------|
                          
|-0-0--0--0--0--0--|--2--2--2--2--2--2---|-2--2--2----2--2--2--|
|-2-2--2--2--2--2--|--3--3--3--3--3--3---|-3--3--3----3--3--3--|
|-2-2--2--2--2--2--|--4--4--4--4--4--4---|-2--2--2----2--2--2--|
|-2-2--2--2--2--2--|--4--4--4--4--4--4---|-0--0--0----0--0--0--|
|-0-0--0--0--0--0--|--2--2--2--2--2--2---|---------------------|
|------------------|---------------------|---------------------|
                          
|-0-0--0--0--0--0--|--3--3--3--3--3--3---|-2--2--2----2--2--2--|
|-2-2--2--2--2--2--|--0--0--0--0--0--0---|-3--3--3----3--3--3--|
|-2-2--2--2--2--2--|--0--0--0--0--0--0---|-2--2--2----2--2--2--|
|-2-2--2--2--2--2--|--0--0--0--0--0--0---|-0--0--0----0--0--0--|
|-0-0--0--0--0--0--|--2--2--2--2--2--2---|---------------------|
|------------------|--3--3--3--3--3--3---|---------------------|
                          
|-0-0--0--0--0--0--|--2--2--2--2--2--2---|-2--2--2----2--2--2--|
|-2-2--2--2--2--2--|--3--3--3--3--3--3---|-3--3--3----3--3--3--|
|-2-2--2--2--2--2--|--4--4--4--4--4--4---|-2--2--2----2--2--2--|
|-2-2--2--2--2--2--|--4--4--4--4--4--4---|-0--0--0----0--0--0--|
|-0-0--0--0--0--0--|--2--2--2--2--2--2---|---------------------|

Продолжаем грести бабос на ботах в Telegram.
Только в этот раз есть вариант автоматизировать это дело, привлекая рефералов. Вы можете заработать если »

|------------------|---------------------|---------------------| |-0-0--0--0--0--0--|--3--3--3--3--3--3---|-2--2--2----2--2--2--| |-2-2--2--2--2--2--|--0--0--0--0--0--0---|-3--3--3----3--3--3--| |-2-2--2--2--2--2--|--0--0--0--0--0--0---|-2--2--2----2--2--2--| |-2-2--2--2--2--2--|--0--0--0--0--0--0---|-0--0--0----0--0--0--| |-0-0--0--0--0--0--|--2--2--2--2--2--2---|---------------------| |------------------|--3--3--3--3--3--3---|---------------------| |-0-0--0--0--0--0--|--2--2--2--2--2--2---|-2--2--2----2--2--2--| |-2-2--2--2--2--2--|--3--3--3--3--3--3---|-3--3--3----3--3--3--| |-2-2--2--2--2--2--|--4--4--4--4--4--4---|-2--2--2----2--2--2--| |-2-2--2--2--2--2--|--4--4--4--4--4--4---|-0--0--0----0--0--0--| |-0-0--0--0--0--0--|--2--2--2--2--2--2---|---------------------| |------------------|---------------------|---------------------| |-0-0-0--0--0--0--|---3--3--3--3--3--3---|-2--2--2----2--2--2--| |-2-2-2--2--2--2--|---0--0--0--0--0--0---|-3--3--3----3--3--3--| |-2-2-2--2--2--2--|---0--0--0--0--0--0---|-2--2--2----2--2--2--| |-2-2-2--2--2--2--|---0--0--0--0--0--0---|-0--0--0----0--0--0--| |-0-0-0--0--0--0--|---2--2--2--2--2--2---|---------------------| |-----------------|---3--3--3--3--3--3---|---------------------| |--0----0--0----0--0--0--| |--2----2--2----2--2--2--| |--2----2--2----2--2--2--| |--2----2--2----2--2--2--| |--0----0--0----0--0--0--| |------------------------| (Electric Guitar) |-------------|------------------|--------------------| |-------------|------------------|--------------------| |-------------|------------------|--------------------| |-------------|------------------|--------------------| |--7----------|------------------|--10----------------| |--5----------|------------------|--8-----------------| |---------------|-------------|-----------|--------------------| |---------------|-------------|-----------|--------------------| |---------------|-------------|-----------|--------------------| |---------------|-------------|-----------|--------------------| |--5------------|--3----------|-----------|--10----------------| |--3------------|--1----------|-----------|--8-----------------| |--------------------|-------------------|------------------| |--------------------|-------------------|------------------| |--------------------|-------------------|------------------| |--------------------|-------------------|------------------| |--5--------6--------|--7----------------|------------------| |--3--------4--------|--5----------------|------------------| |-----------|-------------------|--------|------------------| |-----------|-------------------|--------|------------------| |-----------|-------------------|--------|------------------| |-----------|-------------------|--------|------------------| |--10-------|--5----------------|--3-----|------------------| |--8--------|--3----------------|--1-----|------------------| |--------------------|-------------------| |--------------------|-------------------| |--------------------|-------------------| |--------------------|-------------------| |--10----------------|--5----------------| |--8-----------------|--3----------------| BRIDGE 3x |-----------------------|--------------------|----------------| |-----------------------|--------------------|----------------| |-----------------------|--------------------|----------------| |------7----------------|--------------------|------7---------| |------7----------------|--------------------|------7---------| |------5----------------|--------------------|------5---------| |------------|------------------------|-------------------------| |------------|------------------------|-------------------------| |------------|------------------------|-------------------------| |------------|------7--7--7--7--7--7--|--7--7--7--7--7--7--7----| |------------|------7--7--7--7--7--7--|--7--7--7--7--7--7--7----| |------------|------5--5--5--5--5--5--|--5--5--5--5--5--5--5----| (Electric Guitar) |--------------------|------------------|--------------------| |--------------------|------------------|--------------------| |--------------------|------------------|--------------------| |--------------------|------------------|--------------------| |---9----------------|------------------|--12----------------| |---7----------------|------------------|--10----------------| |-------------|-------------|-------------|--------------------| |-------------|-------------|-------------|--------------------| |-------------|-------------|-------------|--------------------| |-------------|-------------|-------------|--------------------| |--7----------|--5----------|-------------|--12----------------| |--5----------|--3----------|-------------|--10----------------| |--------------------|--------------------|--------------------| |--------------------|--------------------|--------------------| |--------------------|--------------------|--------------------| |--------------------|--------------------|--------------------| |--7--------8--------|--9-----------------|--------------------| |--5--------6--------|--7-----------------|--------------------| |-------------|-------------|-------------|--------------------| |-------------|-------------|-------------|--------------------| |-------------|-------------|-------------|--------------------| |-------------|-------------|-------------|--------------------| |--12---------|--7----------|--5----------|--------------------| |--10---------|--5----------|--3----------|--------------------| |--------------------|--------------------| |--------------------|--------------------| |--------------------|--------------------| |--------------------|--------------------| |--12----------------|--7-----------------| |--10----------------|--5-----------------|








О сайтеАккордыХит-парадПоискУроки ФорумыИщу песню
ПрограммыСвежачок-сПодпискаСтатьи
Яндекс.Метрика