Табулатура Strokes | Is This It гитара табулатуры уроки тексты песен Strokes текст lyrics песня аккорды песни ноты нота электрогитара струна  
   А Б В Г Д Е Ж З И К Л М Н О П Р С Т У Ф Х Ч Ш Ы Э Ю Я       Разные песни
1-9 A B C D E F G H I J K L M N O P Q R S T U V W Y Z      Все исполнители

    



группа Strokes, Табулатура песни Is This It

Группа: Strokes - другие аккорды (19),   о группе (7 статей),   диски (9),   фотографии (48)
Табулатура песни: Is This It
Просмотров: 1879
Подобрал: Кс-82




    
The Strokes: Is This It
Someday 
Intro
E|--5--7---9--7---9--7---7--5---|
B|--5--5---7--7---7--7---7--5---|
G|--6--6---7--7---7--7---7--6---|
D|--7--7---9--9---9--9---9--7---|
A|------------------------------|
E|------------------------------|
  Chorus 
E|-----------------|
B|-----------------|
G|-6-------7---6---|
D|-7---9---7---7---|
A|-7---9---5---7---|
E|-5---7---5---5---|
  
  \"Oh, my ex says I\'m lacking in depth\"
E|-9-12-9--7-10-7--5/9/5-2-------5---5----|
B|-------------------------3-----7---5----|
G|-------------------------------7---5----|
D|----------------------------------------|
A|----------------------------------------|
E|----------------------------------------|
 \"Oh, someday\"
E|-----------|
B|-----------|
G|-1111111---|
D|-2222222---|
A|-2222222---|
E|-0000000---|
 
E|-------------------|
B|-------------------|
G|-------------------|
D|-2-2--4-4--7-7-----|
A|-0-0--2-2--5-5--7-7|
E|----------------5-5|

Last Nite    
E|------------------------------------------------------|
B|------------------------------------------------------|
G|------------------------------------------------------| x4
D|--10-10-10-10--10-10-10-10--10-10-10-10--10-10-10-10--|
A|---X--X--X--X---X--X--X--X---X--X--X--X---X--X--X--X--|
E|---8--8--8--8---8--8--8--8---8--8--8--8---8--8--8--8--|
E|------------------------------------------------------|
B|------------------------------------------------------|
G|------------------------------------------------------| x2
D|--10-10-10-10--10-10-10-10--10-10-10-10--10-10-10-10--|
A|---8--8--8--8---8--8--8--8--10-10-10-10--10-10-10-10--|
E|---8--8--8--8---8--8--8--8---8--8--8--8---8--8--8--8--|
E|---------------------------------------------------|
B|---------------------------------------------------|
G|--5-5-5-5--5-5-5-5--7-7-7-7--12-12-12-12--9-9-7-7--| x3
D|--5-5-5-5--5-5-5-5--7-7-7-7--12-12-12-12--9-9-7-7--|
A|--3-3-3-3--3-3-3-3--5-5-5-5--10-10-10-10--7-7-5-5--|
E|---------------------------------------------------|
E|------------------------------------------------------|
B|------------------------------------------------------|
G|------------------------------------------------------| x4
D|--10-10-10-10--10-10-10-10--10-10-10-10--10-10-10-10--|
A|---8--8--8--8---8--8--8--8--10-10-10-10--10-10-10-10--|
E|---8--8--8--8---8--8--8--8---8--8--8--8---8--8--8--8--|
E|---------------------------------------------------|
B|---------------------------------------------------|
G|--5-5-5-5--5-5-5-5--7-7-7-7--12-12-12-12--9-9-7-7--| x2
D|--5-5-5-5--5-5-5-5--7-7-7-7--12-12-12-12--9-9-7-7--|
A|--3-3-3-3--3-3-3-3--5-5-5-5--10-10-10-10--7-7-5-5--|
E|---------------------------------------------------|
E|------------------------------------------------------|
B|------------------------------------------------------|
G|------------------------------------------------------|
D|--10-10-10-10--10-10-10-10--10-10-10-10--10-10-10-10--|
A|---X--X--X--X---X--X--X--X---X--X--X--X---X--X--X--X--|
E|---8--8--8--8---8--8--8--8---8--8--8--8---8--8--8--8--|
E|------------------------------------------------------|
B|------------------------------------------------------|
G|------------------------------------------------------| x2
D|--10-10-10-10--10-10-10-10--10-10-10-10--10-10-10-10--|
A|---8--8--8--8---8--8--8--8--10-10-10-10--10-10-10-10--|
E|---8--8--8--8---8--8--8--8---8--8--8--8---8--8--8--8--|
Solo
E|--13^-13-11----11-13^-13-11----11-----|
B|------------13--------------13-11-----|
G|----------------------------------10--|
D|--------------------------------------|
A|--------------------------------------|
E|--------------------------------------|
E|--11----10-------8-----8-----|
B|-----10----8-11^---11^---11--|
G|-----------------------------| x2
D|-----------------------------|
A|-----------------------------|
E|-----------------------------|
E|---------------------------------------------|
B|--8----8----8----8----8-----8-8-8-8-8-8-8-8--|
G|----10---10---10---10---10--8-8-8-8-8-8-8-8--|
D|---------------------------------------------|
A|---------------------------------------------|
E|---------------------------------------------|
End Solo
E|------------------------------------------------------|
B|------------------------------------------------------|
G|------------------------------------------------------| x3
D|--10-10-10-10--10-10-10-10--10-10-10-10--10-10-10-10--|
A|---8--8--8--8---8--8--8--8--10-10-10-10--10-10-10-10--|
E|---8--8--8--8---8--8--8--8---8--8--8--8---8--8--8--8--|
E|--------------------------------------------|
B|--------------------------------------------|
G|--------------------------------------------|
D|--10-10-10-10--10-10-10-10--10-10-10-10-10--|
A|---8--8--8--8---8--8--8--8--10-10-10-10-10--|
E|---8--8--8--8---8--8--8--8---8--8--8--8--8--|
E|---------------------------------------------------|
B|---------------------------------------------------|
G|--5-5-5-5--5-5-5-5--7-7-7-7--12-12-12-12--9-9-7-7--| x2
D|--5-5-5-5--5-5-5-5--7-7-7-7--12-12-12-12--9-9-7-7--|
A|--3-3-3-3--3-3-3-3--5-5-5-5--10-10-10-10--7-7-5-5--|
E|---------------------------------------------------|
E|--------------------|
B|--------------------|
G|--5-5-5-5--5-5-5-5--|
D|--5-5-5-5--5-5-5-5--|
A|--3-3-3-3--3-3-3-3--|
E|--------------------|
E|------------------------------------------------------|
B|------------------------------------------------------|
G|------------------------------------------------------| x2
D|--10-10-10-10--10-10-10-10--10-10-10-10--10-10-10-10--|
A|---8--8--8--8---8--8--8--8--10-10-10-10--10-10-10-10--|
E|---8--8--8--8---8--8--8--8---8--8--8--8---8--8--8--8--|
E|--------------------------------------------------------|
B|--------------------------------------------------------|
G|--------------------------------------------------------|
D|--10-10-10-10--10-10-10-10--10-10-10-10--10-10-10-10-10-|
A|---X--X--X--X---X--X--X--X---X--X--X--X---X--X--X--X--X-|
E|---8--8--8--8---8--8--8--8---8--8--8--8---8--8--8--8--8-|

The Modern Age   
intro
part 1 (x4)
E---2-2-2-2---0-0-0-0---------
B---1-1-1-1---1-1-1-1---------
G---2-2-2-2---2-2-2-2---------
D---0-0-0-0---0-0-0-0---------
A-----------------------------
E-----------------------------
part 3 (x2)   
         [chord: D]
E-----------------------------
B-----------------------------
G--11-11-11-11---9-9-9-9------
D---x--x--x--x---x-x-x-x------
A---9--9--9--9---7-7-7-7------
E-----------------------------
part 2 (x2)
         [chord: G]
E-----------------------------
B-----------------------------
G---9--9--9--9---7-7-7-7------
D---x--x--x--x---x-x-x-x------
A---7--7--7--7---5-5-5-5------
E-----------------------------
 [D (part 2)]
  Up on a hill, thatДs where we begin
                                     [G (part 3)]
  This little story, a long time ago,
                                       etc.
chorus:
[G]             [D/F# *]
   Leavin\' just in time
                [Em  **]   
   Stayed here for a while
                [F#m]          
   Rollin\' in the ocean
                [A] 
   Trying to catch her eye
                [D/F#] 
   We\'re caught, and say it\'s easy 
                [Em] 
   Do it just to please me
                [F#m]  
   Tomorrow it is different 
                [A]
   So I pretend, I pretend
                [D]   
   I\'m leavin\'
lead guitar in chorus:
                     [D/F#]
E------------------------------------------------
B------------------------------------------------
G---11-11-11-11-11-11-11-11-11-11-11-11-11-11-11-
D----x--x--x--x--x--x--x--x--x--x--x--x--x--x--x-
A----9--9--9--9--9--9--9--9--9--9--9--9--9--9--9-
E------------------------------------------------
                     
                     [Em]
E------------------------------------------------
B------------------------------------------------
G---12-12-12-12-12-12-12-12-12-12-12-12-12-12-12-
D----x--x--x--x--x--x--x--x--x--x--x--x--x--x--x-
A---10-10-10-10-10-10-10-10-10-10-10-10-10-10-10-
E------------------------------------------------
                     [F#m]
E------------------------------------------------
B------------------------------------------------
G---11-11-11-11-11-11-11-11-11-11-11-11-11-11-11-
D----x--x--x--x--x--x--x--x--x--x--x--x--x--x--x-
A----9--9--9--9--9--9--9--9--9--9--9--9--9--9--9-
E------------------------------------------------
                     [A]
E------------------------------------------------
B------------------------------------------------
G----9--9--9--9--9--9--9--9--9--9--9--9--9--9--9-
D----x--x--x--x--x--x--x--x--x--x--x--x--x--x--x-
A----7--7--7--7--7--7--7--7--7--7--7--7--7--7--7-
E------------------------------------------------
(solo: D - G)
   
(then goes back to part 2 & part 3)
last chorus:
[G]             [D/F# *]
   Leavin\' just in time
                [Em  **]   
   Stayed here for a while
                [F#m]          
   Rollin\' in the ocean
                [A] 
   Trying to catch her eye
                [D/F#] 
   We\'re caught, and say it\'s easy 
                [Em] 
   Do it just to please me
                [F#m]  
   Tomorrow it is different 
                [A]             [Gm]
   And this is why I\'m leavin\'  

Soma 
Intro
------------|-----------------------------------------------------------------
-12------12-|-----------------------------------------------------------------
-12------12-|-----------------------------------------------------------------
-12------12-|-----------------------------------------------------------------
-10------10-|-----------------------------------------------------------------
------------|-----------------------------------------------------------------
                                                                              
Verse Riff
-----------10-----------10-----------8-----------8|---------------------------
-8-8----------8-8----------6-6---------6-6--------|---------------------------
-9-9-12-12----9-9-12-12----7-7-10-10---7-7-10-10--|---------------------------
--------------------------------------------------|---------------------------
--------------------------------------------------|---------------------------
--------------------------------------------------|---------------------------
                                                                              
Chrous                   Bridge         
-10-10-9-9-10-10-9-9-9-9|------------|----------------------------------------
-8--8--8-8-8--8--8-8-8-8|-12-12-12-12|----------------------------------------
------------------------|-12-12-12-12|----------------------------------------
------------------------|-12-12-10-12|----------------------------------------
------------------------|-10-10-10-10|----------------------------------------
------------------------|------------|----------------------------------------
                                                                              
Other Part
------------------------|----------|----------------------|----------|--------
----------12------------|----------|---------10-----------|----------|--------
-------12----12-------12|--repeat--|------10----10------10|--repeat--|--------
----12----------12------|----------|---10----------10-----|----------|--------
-10----------------10---|----------|-8----------------8---|----------|--------
------------------------|----------|----------------------|----------|--------
 
Last Nite 
Intro:
This part guitar 1 plays:
E -------------------------------------------------
B -------------------------------------------------
G -------------------------------------------------
D 10-10-10-10-10-10-10-10--10-10-10-10-10-10-10-10
A X--X--X--X--X--X--X--X---X--X--X--X--X--X--X--X--
E 8--8--8--8--8--8--8--8---8--8--8--8--8--8--8--8--
This part guitar 2 plays:
E -------------------------------------------------
B -------------------------------------------------
G -------------------------------------------------
D 10-10-10-10-10-10-10-10--10-10-10-10-10-10-10-10-
A 8--8--8--8--8--8--8--8---10-10-10-10-10-10-10-10-

Продолжаем грести бабос на ботах в Telegram.
Только в этот раз есть вариант автоматизировать это дело, привлекая рефералов. Вы можете заработать если »

E 8--8--8--8--8--8--8--8---8--8--8--8--8--8--8--8-- Chorus: Guitar 1: slight distortion E-------------------------------------------------------- B-------------------------------------------------------- G--5-5-5-5-5-5-5-5---7-7-7-7---12-12-12-12---10-10--7-7-- D--5-5-5-5-5-5-5-5---7-7-7-7---12-12-12-12---10-10--7-7-- A--3-3-3-3-3-3-3-3---5-5-5-5---10-10-10-10---7--7---5-5-- E-------------------------------------------------------- Guitar 2: E-------------------------------------------------------------- B-------------------------------------------------------------- G--5-5-5--5-5-5-5-5-5--5-5-5--5-5-5-5-5-5--7-7-7--7-7-7-7-7-7-- D--5-5-5--5-5-5-5-5-5--5-5-5--5-5-5-5-5-5--7-7-7--7-7-7-7-7-7-- A--3-3-3--3-3-3-3-3-3--3-3-3--3-3-3-3-3-3--5-5-5--5-5-5-5-5-5-- E-------------------------------------------------------------- E ----------------------------------------------------------- A ----------------------------------------------------------- D ----------------------------------------------------------- G 12-12-12--12-12-12-12-12-12---12-12-12--12-12-12-12-12-12-- B 12-12-12--12-12-12-12-12-12---12-12-12--12-12-12-12-12-12-- E 10-10-10--10-10-10-10-10-10---10-10-10--10-10-10-10-10-10-- Solo: E----------------------------------------------------------------------- B--18^--18p16\\13-15-18--18p16\\13--16----15----12^^----16----15-----12^^^ G-------------------------------------14----13-----10----14----13------- D----------------------------------------------------------------------- A----------------------------------------------------------------------- E---------------------------------------------------------------------- E------------------------------------------------------------------------ B-------------------------------------------------------16^^^------------ G--------------------------------12-12-12-12-12-12-12-------------------- D--13-10-13-10-13-10-13-10-13-10-12-12-12-12-12-12-12-------------------- A------------------------------------------------------------------------ E------------------------------------------------------------------------ New York City Cops MAIN RIFF e----------------------------------- B----------------------------------- G----------------------------------- D----------------------------------- A----------------------------------- E-5-5-5-5-5-5-5-5-3---0---3---0---3- ENDING e----------------------------------- B----------------------------------- G----------------------------------- D----------------------------------- A----------------------------------- E-5-5-5-5-5-5-5-5-7---0---3---0---3- PRE-CHORUS A e----------------------------------------------------- B-14-14-14-14-14-14-14-14-12/14-1414-14-12/14-1414-14- G-14-14-14-14-14-14-14-14-12/14-1414-14-12/14-1414-14- D----------------------------------------------------- A-12-12-12-12-12-12-12-12-10/12-1212-12-10/12-1212-12- E----------------------------------------------------- PRE-CHORUS B e----------------------------------------------------- B-12-12-12-12-12-12-12-12-10/12-1212-12-10/12-1212-12- G-12-12-12-12-12-12-12-12-10/12-1212-12-10/12-1212-12- D----------------------------------------------------- A-10-10-10-10-10-10-10-10--8/10-1010-10--8/10-1010-10- E----------------------------------------------------- PRE-CHORUS C e----------------------------------------------------- B----------------------------------------------------- G-11-11-11-11-11-11-11-11--9/11-1111-11--9/11-1111-11- D-12-12-12-12-12-12-12-12-10/12-1212-12-10/12-1212-12- A-12-12-12-12-12-12-12-12-10/12-1212-12-10/12-1212-12- E-10-10-10-10-10-10-10-10--8/10-1010-10--8/10-1010-10- PRE-CHORUS D e------------------------------------------------- B------------------------------------------------- G-13-13-13-13-13-13-13-13-13-13-13-13-13-13-13-13- D-14-14-14-14-14-14-14-14-14-14-14-14-14-14-14-14- A-14-14-14-14-14-14-14-14-14-14-14-14-14-14-14-14- E-12-12-12-12-12-12-12-12-12-12-12-12-12-12-12-12- PRE-CHORUS E e------------------------------------- B------------------------------------- G-12----12----12-12-12-12-12-12-12-12- D-12----12----12-12-12-12-12-12-12-12- A-10----10----10-10-10-10-10-10-10-10- E------------------------------------- CHORUS e-------------------------------------------------- B---8--8--8--8--8--8--8--8--8--8--8--8--8--8--8--8- G---9--9--9--9--9--9--9--9-10-10-10-10-10-10-10-10- x2 D--10-10-10-10-10-10-10-10-10-10-10-10-10-10-10-10- A-------------------------------------------------- D-------------------------------------------------- SOLO e----------------------------10b14---8---7h10-7---7h87h87h87h8-7- B-10b12---10b11--8-10b11-8------------10--------8---------------- G---------------9---------9-------------------------------------- D---------------------------------------------------------------- A---------------------------------------------------------------- E---------------------------------------------------------------- e-8----10----8----10----8-----7---10---7---10---7--- B---10----10---10----10---10----8----8---8----8---8- G--------------------------------------------------- D--------------------------------------------------- A--------------------------------------------------- E--------------------------------------------------- e-8----10----8----10----8-----7---10---7---10---7-8- B---10----10---10----10---10----8----8---8----8----- G--------------------------------------------------- D--------------------------------------------------- A--------------------------------------------------- E--------------------------------------------------- MAIN RIFF REST MAIN RIFF WITH BRIDGE BRIDGE play twice e-------------------------------------- B-5--5--5--5--5--5--5--5---8--5-8--5-8- G-7b-7b-7b-7b-7b-7b-7b-7b--7--4-7--4-7- D-------------------------------------- A-------------------------------------- e-------------------------------------- BRIDGE B e----------------------------------------------------------- B-13-10--1313-10---13-10--1313-10---5--5--5--5--5--5--5--5-- G-12--9--1212--9---12--9--1212--9---7b-7b-7b-7b-7b-7b-7b-7b- D----------------------------------------------------------- A----------------------------------------------------------- E----------------------------------------------------------- Trying Your Luck (INTRO) Am F Dm G Em E||--0-0---0----1-1---1----1-1---1----3-3---3----0-0---0------------|| B||--1-1---1----1-1---1----3-3---3----0-0---0----0-0---0------------|| G||--2-2---2----3-3---3----2-2---2----0-0---0----0-0---0------------|| D||--2-2---2----2-2---2----0-0---0----0-0---0----2-2---2------------|| A||--0-0---0----2-2---2---------------2-2---2----2-2---2------------|| E||-------------1-1---1---------------3-3---3----0-0---0------------|| E||-----------------------------------------------------------------|| B||-----------------------------------------------------------------|| G||--555555555555555555555554444444444444445555555555555555555------|| D||-----------------------------------------------------------------|| A||-----------------------------------------------------------------|| E||-----------------------------------------------------------------|| (PRE_CHORES) Rhythum Guitar/Lead Guitar F D C E F D C B E||--1-1--1--2-2--2--1-1--1--0-0--0--1-1--1--2-2--2--1-1--1--2-2--2------|| B||--1-1--1--3-3--3--2-2--2--0-0--0--1-1--1--3-3--3--2-2--2--4-4--4------|| G||--3-3--3--2-2--2--3-3--3--0-0--0--3-3--3--2-2--2--3-3--3--4-4--4------|| D||--2-2--2--0-0--0--3-3--3--2-2--2--2-2--2--0-0--0--3-3--3--4-4--4------|| A||--2-2--2----------0-0--0--2-2--2--2-2--2----------0-0--0--2-2--2------|| E||--1-1--1------------------0-0--0--1-1--1------------------------------|| (Chorus) E||-----------------------------------------------------------------|| B||-----------------------------------------------------------------|| G||-----------------------------------------------------------------|| D||-----------------------------------------------------------------|| A||------------5-88-5-8---3-55-3-5---5-3-0-----5-77-5-7-------------|| E||--3-55-3-5-------------------------------3-----------------------|| Take It Or Leave It INTRO FIRST GUITAR A G# Dm C (these chords are for the piano) e------------------------ B------------------------ G----9--8--7------------- D---------------10------- A------------------------ E------------------------ And then FIRST GUITAR e------------------------ B----8-8----------------- THIS IS THE MAIN RIFF G--9-------9-10-10------- D------------------------ A------------------------ E------------------------ SECOND GUITAR C5 A#5 D5 (see the chords at the end) VERSE It\'s the same as the second part of the intro But play it one time before every beginning of verses C5 Leave me alone A#5 I\'m in control D5 I\'m in control C5 And girls lie too much A#5 And boys act too tough D5 Enough is enough BRIDGE C Well, on the minds A# Of other men Dm I know she was... CHORUS C5 I said, \"Just take it or leave it A#5 And take it or leave it D5 And take it or leave it C5 And take it or leave it A#5 Oh, just take it or leave it D5 And take it or leave it D5 Oh, take it\" C5 That\'s right E5 D#5 D5 C5 Oh, he\'s gonna let you down E5 D#5 D5 C5 He\'s gonna let you down E5 D#5 D5 C5 He\'s gonna let you down E5 D#5 D5 C5 He\'s gonna break your back for a chance E5 D#5 D5 C5 He\'s gonna steal your friends if he can E5 D#5 D5 He\'s gonna win someday VERSE I fell off the track, now I can\'t go back I\'m not like that Boys lie too much Girls act too tough Enough is enough BRIDGE Well on the minds Of other girls I know he was... CHORUS I said, \"Just take it or leave it And take it or leave it And take it or leave it And take it or leave it Oh, just take it or leave it And take it or leave it Oh, take it\" e------------------11-------------------------------------------- B--13-----13-----13-13-11p13-13-13-11-13-11-13-13-11-13-11-13-13- G---------------------------------------------------------------- D---------------------------------------------------------------- A---------------------------------------------------------------- E---------------------------------------------------------------- ( ( e-------------11-11------11-11- - - B-8--11--13-13------13-13------ - - G------------------------------ - - D------------------------------ - - A------------------------------ - - E------------------------------ - - SECOND BRIDGE Oh, he\'s gonna let you down He\'s gonna let you down He\'s gonna let you down He\'s gonna break your back for a chance He\'s gonna steal your friends if he can He\'s gonna win someday Oh, he will... Finish the same chords as the break CHORDS USED C5 A#5 D5 C A# Dm E5 D#5 G# e------------------3----1----5--------------4--- B------------------5----3----6--------------4--- G---5----3----7----5----3----7----9----8----5--- D---5----3----7----5----3----7----9----8----6--- A---3----1----5----3----1----5----7----6----6--- E------------------3----1----5--------------4---








О сайтеАккордыХит-парадПоискУроки ФорумыИщу песню
ПрограммыСвежачок-сПодпискаСтатьи
Яндекс.Метрика