Табулатура The Music | Turn Out The Light гитара табулатуры уроки тексты песен The Music текст lyrics песня аккорды песни ноты нота электрогитара струна  
   А Б В Г Д Е Ж З И К Л М Н О П Р С Т У Ф Х Ч Ш Ы Э Ю Я       Разные песни
1-9 A B C D E F G H I J K L M N O P Q R S T U V W Y Z      Все исполнители

    



группа The Music, Табулатура песни Turn Out The Light

Группа: The Music - другие аккорды (7),   диски (1)
Табулатура песни: Turn Out The Light
Просмотров: 1062
Подобрал: Кс-82




    
The Music: Turn Out The Light
Обратите внимание на строй гитары!!!!
Intro\\verse
e|--------------------------------|
b|--------------------------------|
g|--------------------------------|             x4
d|---------13---------------9-----|
a|-----11----------------7--------|
d|-11----------------7------------|
verse 2  
e|-------------------------------------------|
b|-------------------------------------------|
g|-------------------------------------------|          
d|---------13-------------9-----9/11\\9-------|
a|-----11--------------7---------------------|
d|-11---------------7------------------------|
e|-----------------------------------------|
b|-----------------------------------------|
g|-------------------------------------9---|            
d|---------13-------------9----9/11--------|
a|-----11--------------7-------------------|
d|-11---------------7----------------------|
e|---------------------------------------------|
b|---------------------------------------------|
g|--------------------------------------9h11---|                
d|---------13-------------9----9/11------------|
a|-----11--------------7-----------------------|
d|-11---------------7--------------------------|
e|--------------------------------------------------------------------------|
b|-------------------------------------------------------------12-----------|
g|--------------------------------------9---11--9.11b13------13r11--9-------|
d|---------13-------------9----9/11-----------------------------------------|
a|-----11--------------7----------------------------------------------------|
d|-11---------------7-------------------------------------------------------|
chorus 
e|----------------------------------------------------------------------|
b|----------------------------------------------------------------------|
g|------------------------------------9999------------------------------|       
d|---------13-------------9-----9/11--9999.9h11p9h11--------------------|       x2

Продолжаем грести бабос на ботах в Telegram.
Только в этот раз есть вариант автоматизировать это дело, привлекая рефералов. Вы можете заработать если »

a|-----11--------------7------------------------------------------------| d|-11---------------7---------------------------------------------------| - interlude e|------------------------------------------------------------| b|------------------------------------------------------------| g|------------------------------------------------------------| x4 d|--14--13--11--9--9------6--7.7/9--9--9----------------------| a|------------------------------------------------------------| d|------------------------------------------------------------| e|------------------------------------------------------------------------| b|------------------------------------------------------------------------| g|------------------------------------9.11.9.14.13.11.9-------------------| d|---------13-------------9---9/11----------------------9-----------------| a|-----11--------------7--------------------------------------------------| d|-11---------------7-----------------------------------------------------| e|---------------------------------------------------------------------| b|---------------------------------------------------------------------| g|--------------------------------------9--11.9h11--9--11.13h14.16-----| d|---------13-------------9-----9/11-----------------------------------| a|-----11--------------7-----------------------------------------------| d|-11---------------7--------------------------------------------------| back into verse 2 e|-9-9-9----9--9--9---9---9--9---9--9--9----------------------------------| b|-9-9-9---12-12-12---9---9--9---10-10-10---------------------------------| g|-9-9-9----9--9--9---9---9--9---9--9--9----------------------------------| d|------------------------------------------------------------------------| a|------------------------------------------------------------------------| d|------------------------------------------------------------------------| final riff e|--------------------------------------| b|-10p9--------12p9-----------5/7-------| g|--------9-------------9---------------| d|-----------9-------------9------------| a|--------------------------------------| d|--------------------------------------|








О сайтеАккордыХит-парадПоискУроки ФорумыИщу песню
ПрограммыСвежачок-сПодпискаСтатьи
Яндекс.Метрика