Табулатура The Music | The Walls Get Smaller гитара табулатуры уроки тексты песен The Music текст lyrics песня аккорды песни ноты нота электрогитара струна  
   А Б В Г Д Е Ж З И К Л М Н О П Р С Т У Ф Х Ч Ш Ы Э Ю Я       Разные песни
1-9 A B C D E F G H I J K L M N O P Q R S T U V W Y Z      Все исполнители

    



группа The Music, Табулатура песни The Walls Get Smaller

Группа: The Music - другие аккорды (7),   диски (1)
Табулатура песни: The Walls Get Smaller
Просмотров: 1118
Подобрал: Кс-82




    
The Music: The Walls Get Smaller
(x12)
|-------------------------------------------------------------
|-------------------------------------------------------------
|--10--9--7--5->--2--2>---------------------------------------
|-0--0--0--0-------0------------------------------------------
|-------------------------------------------------------------
|-------------------------------------------------------------
(x2)
|-------------------------------------------------------------
|-------------------------------------------------------------
|--3-2-3-2-3-2-3-2-3-2--2--2--2-2--2--2-----------------------
|-0---0---0---0---0---0--0--0----0--0-------------------------
|----------------------3--3--3-3--3--3------------------------
|-------------------------------------------------------------
A second guitar comes in here, played over the first guitar 
(x3)
|-------------------------------------------------------------
|-------------------------------------------------------------
|--15-14-12-10-9----------------------------------------------

Продолжаем грести бабос на ботах в Telegram.
Только в этот раз есть вариант автоматизировать это дело, привлекая рефералов. Вы можете заработать если »

|-0--0--0--0--0----------------------------------------------- |------------------------------------------------------------- |------------------------------------------------------------- |------------------------------------------------------------- |-----------------------6-5-6-5-6-5-6-5-6-5------------------- |--7-5-7-5-7-5-7-5-7-5-5---5---5---5---5---------------------- |-0---0---0---0---0------------------------------------------- |------------------------------------------------------------- |------------------------------------------------------------- play each of these notes about 12 times. |------------------------------------------------------------- |------------------------------------------------------------- |------------------------------------------------------------- |-7-----9-----10----12-----14-----17-----19-----21-----22----- |-5-etc-7-etc-8-etc-10-etc-12-etc-15-etc-17-etc-19-etc-20----- |-------------------------------------------------------------

Отопление с помощью теплового насоса www.teplodom-kzn.ru
teplodom-kzn.ru







О сайтеАккордыХит-парадПоискУроки ФорумыИщу песню
ПрограммыСвежачок-сПодпискаСтатьи
Яндекс.Метрика