Табулатура The Music | The Truth Is No Words гитара табулатуры уроки тексты песен The Music текст lyrics песня аккорды песни ноты нота электрогитара струна  
   А Б В Г Д Е Ж З И К Л М Н О П Р С Т У Ф Х Ч Ш Ы Э Ю Я       Разные песни
1-9 A B C D E F G H I J K L M N O P Q R S T U V W Y Z      Все исполнители

    



группа The Music, Табулатура песни The Truth Is No Words

Группа: The Music - другие аккорды (7),   диски (1)
Табулатура песни: The Truth Is No Words
Просмотров: 993
Подобрал: Кс-82




    
RIFF 1 x8
--------------|-----------------|-
--------------|-----------------|-
--------------|---------------7-|-
--------------|-----------7h9---|- (lyrics come in)
-------5------|-------7h9-------|-
-5h7-7-----7--|-5-5/7-----------|-
RIFF 2 x2
-------------|-----------|-          -------------|--------------|-
-------------|-----------|-          -------------|--------------|-
-------------|-----------|-          -------------|--------------|-
-------------|-----------|-x3        -------------|--------------|-
-------5-----|-----------|-          -----5-5-----|------7-7-----|-
-5h7-7-----7-|-5p7-----7-|-          -5h7-------7-|-7h10---------|-
RIFF 1 x8
CHORUS x2
--------|---------|-         --------|--------|-  
--------|---------|-         --------|--------|-  
--------|---------|-         --------|--------|-  

Продолжаем грести бабос на ботах в Telegram.
Только в этот раз есть вариант автоматизировать это дело, привлекая рефералов. Вы можете заработать если »

-9------|-7---4---|-x3 -2------|-4------|- -9------|-7---4---|- -2------|-4------|- -7------|-5---2---|- -0------|-2------|- RIFF 1 x4 RIFF 3 x16 --------------|--------------|- --------------|--------------|- --------------|--------------|- --------------|--------------|- ----------7-9-|----------7h9-|- -7---7-10-----|-7---7h10-----|- RIFF 1 x8 CHORUS x2 SOLO RIFF 1 x12 CHORUS

Работа на дому для молодых мам
работа на дому для молодых мам
lazybusiness.ru
Диагностическая карта техосмотра купить
Техосмотр
osago-dolgop.ru
Как зайти на гидру с компьютера
Как зайти на гидру с компьютера
hydra-web.store







О сайтеАккордыХит-парадПоискУроки ФорумыИщу песню
ПрограммыСвежачок-сПодпискаСтатьи
Яндекс.Метрика