Табулатура Ария | Мечты гитара табулатуры уроки тексты песен Ария текст lyrics песня аккорды песни ноты нота электрогитара струна  
   А Б В Г Д Е Ж З И К Л М Н О П Р С Т У Ф Х Ч Ш Ы Э Ю Я       Разные песни
1-9 A B C D E F G H I J K L M N O P Q R S T U V W Y Z      Все исполнители in english

    



группа Ария, Табулатура песни Мечты

Продолжаем грести бабос на ботах в Telegram.
Только в этот раз есть вариант автоматизировать это дело, привлекая рефералов. Вы можете заработать если »

Группа: Ария - другие аккорды (629),   о группе (7 статей),   диски (18),   фотографии (92)
Табулатура песни: Мечты
Просмотров: 3680
Подобрал: Forever (jfa@yandex.ru)




    
Мечты - Ария
                                                                              
E||--------|-------------------|---------------------------------------------|
B||--------|-------------------|---------------------------------------------|
G||--------|-------------------|---------------------------------------------|
D||-----0--|--2----------2--0--|--0-------------------0-------------0-----2--|
A||--3-----|-------------------|-----3----------0--3------3------3-----3-----|
E||--------|-------------------|---------------------------------------------|

                                                                 
---------------------|------------------------------------------|
---------------------|------------------------------------------|
---------------------|----------------0-------------------------|
--2---------------0--|--2--2-------------2--0-------------------|
---------------3-----|-------------------------3----------0--3--|
---------------------|------------------------------------------|

                                                                    
----------------------|--------------------------------------------|
----------------------|--------------------------------------------|
----------------------|--------------------------------------------|
--0---------0---------|--0-------------------0------0--0-----------|
---------3---------3--|----3-0--0-------------------------3--0--3--|
----------------------|--------------------------------------------|

                                                              
-------------------|-----------------------------------------|
-------------------|-----------------------------------------|
-------------------|-----------------------------------------|
-------------------|--0------0--0----------------------------|
--3----------------|---------------3--0--3--3----------------|
-------------------|-----------------------------------------|

                                                                   
-----------------------|------------------------------------------|
-----------------------|------------------------------------------|
-----------------------|------------------------------------2--1--|
--0------0--0----------|---------------------0------2--3----------|
-----------------3--0--|--3--3------------3-----------------------|
-----------------------|------------------------------------------|

                                                                      
--------------------|------------------------------------------------|
--------------------|------------------------------------------------|
--0--------0--------|--2------2--2----0---------0------0--0----------|
--------------------|--3------3--3----2----3----2------2--2--3----2--|

Продолжаем грести бабос на ботах в Telegram.
Только в этот раз есть вариант автоматизировать это дело, привлекая рефералов. Вы можете заработать если »

--------------------|----------------------5-----------------5-------| --------------------|------------------------------------------------| ------------------------|------------------------------------| ------------------------|------------------------------------| ------------------------|---------------2------2--2----0-----| --0------0--0-----------|---------------3------3--3----2--3--| --8------------3--0--3--|--3------------------------------5--| ------------------------|------------------------------------| ----------------------|-----------------------|---------------|| ----------------------|-----------------------|---------------|| --0------0------------|-----------------2--1--|--0------------|| --2------2--0----2----|--0------2--3----------|---------------|| ------------8---------|-----------------------|---------------|| ----------------------|-----------------------|---------------|| А в аккордах это смотрится примерно вот так: Am Ты устала быть покорной F G Am Ты устала быть рабой Жить надеждой иллюзорной F G Am Отвечать на жест любой Припев: Dm Dm/F Am Барабанит по стеклам Dm Dm/F Am Дождь, как будто живой Dm Dm/F Am Ты сейчас одинока F E7 Открой, открой, открой. F C Жизнь идет где-то за стеной Dm Am А ты в плену пустоты F C О, как жаль, но всему виною Dm E7 Мечты, мечты, мечты... Ты пыталась стать жестокой Стать прозрачной словно лед Недоступной и далекой И живущей без забот.

лекарство в аптеке
список лекарств






О сайтеАккордыХит-парадПоискУроки ФорумыИщу песню
ПрограммыСвежачок-сПодпискаСтатьи
Яндекс.Метрика