Аккорды Radiohead | El President гитара табулатуры уроки тексты песен Radiohead текст lyrics песня аккорды песни ноты нота электрогитара струна  
   А Б В Г Д Е Ж З И К Л М Н О П Р С Т У Ф Х Ч Ш Ы Э Ю Я       Разные песни
1-9 A B C D E F G H I J K L M N O P Q R S T U V W Y Z      Все исполнители in english

    



группа Radiohead, Аккорды песни El President

Работа в Европе для граждан РФ, Украины, СНГ

  • минимальная зарплата $500.
  • виза и контракт на полгода, возможно продление
  • проживание оплачивает работодатель
  • нужен только загранпаспорт
  • оформление 190 €
  • данное предложение - отличная возможность эмигрировать в Европу и закрепиться здесь навсегда.

  • Мы свяжемся с Вами по WhatsApp или Viber и ответим на любые вопросы.
    на нашем сайте можно почитать подробнее »

    Группа: Radiohead - другие аккорды (189),   о группе (6 статей),   диски (9),   фотографии (134)
    Аккорды песни: El President
    Просмотров: 1453
    Подобрал: Giuseppe Dimunno (giuseppedimunno@katamail.com)




        
    * Drugstore Feat. THOM YORKE - El President 
     * Guitar tab by Giuseppe Dimunno 
    This is not a Radiohead, but great part of it is singed by Thom Yorke.
    In this song there are two guitars, whose chords are simple both to understand
    and to play.
     
    GTR1=acoustic guitar
    GTR2=electric guitar (open D tuning)
    __Intro____________________________________________________________________________________________
    GTR2(strong reverb)
           D         D#          D         D#       
    d||-----------------------|-----------------|
    A||-----------------------|-----------------|
    F||----1--1--1---2--2--2--|--1--1--1---2----|
    C||----2--2--2---3--3--3--|--2--2--2---3----|
    G||----2--2--2---3--3--3--|--2--2--2---3----|
    D||-----------------------|-----------------|
    
    __1stVerse__________________________________________________________________________________________
    GTR1
    (x2)
           G             D             C
    e||----3---3---3--|-------------|----------------------------|
    B||----3---3---3--|--3---3---3--|--1---1---1----1---1---1----|
    G||---------------|--2---2---2--|----------------------------|
    D||---------------|-------------|--2---2---2----2---2---2----|
    A||----2---2---2--|-------------|--3---3---3----3---3---3----|
    E||----3---3---3--|-------------|----------------------------|
    (x1)
           G             D             D#                         D             D#  
             D             D#
    e||----3---3---3--|-------------|--x---x---x----x---x---x--|--x---x---x--|--x---x---x--|--x---x---x--|--x----|
    B||----3---3---3--|--3---3---3--|--x---x---x----x---x---x--|--x---x---x--|--x---x---x--|--x---x---x--|--x----|
    G||---------------|--2---2---2--|--8---8---8----8---8---8--|--7---7---7--|--8---8---8--|--7---7---7--|--8----|
    D||---------------|-------------|--8---8---8----8---8---8--|--7---7---7--|--8---8---8--|--7---7---7--|--8----|
    A||----2---2---2--|-------------|--6---6---6----6---6---6--|--5---5---5--|--6---6---6--|--5---5---5--|--6----|
    E||----3---3---3--|-------------|--------------------------|-------------|-------------|-------------|-------|
                                                             GTR2(strong reverb)
                                                                    D         D#    
         D         D#        
                                          play this riff    
    d||-----------------------|-----------------|
                                          at this moment    
    A||-----------------------|-----------------|
                                          with a second     
    F||----1--1--1---2--2--2--|--1--1--1---2----|
                                          guitar            
    C||----2--2--2---3--3--3--|--2--2--2---3----|
                                                            
    G||----2--2--2---3--3--3--|--2--2--2---3----|
                                                            
    D||-----------------------|-----------------|
    
    Thom Enters singing: 
    "I'm just a man ..."
    GTR1
    (x2)
           G             D             C
    e||----3---3---3--|-------------|----------------------------|
    B||----3---3---3--|--3---3---3--|--1---1---1----1---1---1----|
    G||---------------|--2---2---2--|----------------------------|
    D||---------------|-------------|--2---2---2----2---2---2----|
    A||----2---2---2--|-------------|--3---3---3----3---3---3----|
    E||----3---3---3--|-------------|----------------------------|
    (x1)
           G             D             D#                         D             D#  
             D          
    e||----3---3---3--|-------------|--x---x---x----x---x---x--|--x---x---x--|--x---x---x--|--x---x---x----|
    B||----3---3---3--|--3---3---3--|--x---x---x----x---x---x--|--x---x---x--|--x---x---x--|--x---x---x----|
    G||---------------|--2---2---2--|--8---8---8----8---8---8--|--7---7---7--|--8---8---8--|--7---7---7----|
    D||---------------|-------------|--8---8---8----8---8---8--|--7---7---7--|--8---8---8--|--7---7---7----|
    A||----2---2---2--|-------------|--6---6---6----6---6---6--|--5---5---5--|--6---6---6--|--5---5---5----|
    E||----3---3---3--|-------------|--------------------------|-------------|-------------|---------------|
                                                             GTR2(strong reverb)
                                                                    D         D#    
         D         D#        
                                          play this riff    
    d||-----------------------|-----------------------|
                                          at this moment    
    A||-----------------------|-----------------------|
                                          with a second     
    F||----1--1--1---2--2--2--|--1--1--1---2--2--2----|
                                          guitar            
    C||----2--2--2---3--3--3--|--2--2--2---3--3--3----|
                                                            
    G||----2--2--2---3--3--3--|--2--2--2---3--3--3----|
                                                            
    D||-----------------------|-----------------------|
    __Chorus____________________________________________________________________________________________________
    "Kill the president ..."
    GTR1
    (x2)
           G             D             C
    
    Узнай ВСЕ о своем друге в ВК или FB
    e||----3---3---3--|-------------|---------------------------------| B||----3---3---3--|--3---3---3--|--1---1---1---1-1-1-1-1-1-1-0----| G||---------------|--2---2---2--|---------------------------------| D||---------------|-------------|--2---2---2---2-2-2-2-2-2-2-2----| A||----2---2---2--|-------------|--3---3---3---3-3-3-3-3-3-3-3----| E||----3---3---3--|-------------|---------------------------------| These are the violin notes. ||----G---G---G--|--A---D---A--|--C---C---C---C----C----B---A----| __2sndVerse__________________________________________________________________________________________ GTR1 (x2) G D C e||----3---3---3--|-------------|----------------------------| B||----3---3---3--|--3---3---3--|--1---1---1----1---1---1----| G||---------------|--2---2---2--|----------------------------| D||---------------|-------------|--2---2---2----2---2---2----| A||----2---2---2--|-------------|--3---3---3----3---3---3----| E||----3---3---3--|-------------|----------------------------| (x1) G D D# D D# D e||----3---3---3--|-------------|--x---x---x----x---x---x--|--x---x---x--|--x---x---x--|--x---x---x----| B||----3---3---3--|--3---3---3--|--x---x---x----x---x---x--|--x---x---x--|--x---x---x--|--x---x---x----| G||---------------|--2---2---2--|--8---8---8----8---8---8--|--7---7---7--|--8---8---8--|--7---7---7----| D||---------------|-------------|--8---8---8----8---8---8--|--7---7---7--|--8---8---8--|--7---7---7----| A||----2---2---2--|-------------|--6---6---6----6---6---6--|--5---5---5--|--6---6---6--|--5---5---5----| E||----3---3---3--|-------------|--------------------------|-------------|-------------|---------------| GR2(strong revrb) D D# D D# play this riff d||-----------------------|-----------------------| at this moment A||-----------------------|-----------------------| with a second F||----1--1--1---2--2--2--|--1--1--1---2--2--2----| guitar C||----2--2--2---3--3--3--|--2--2--2---3--3--3----| G||----2--2--2---3--3--3--|--2--2--2---3--3--3----| D||-----------------------|-----------------------| __Chorus____________________________________________________________________________________________________ "Kill the president ..." (x2) G D C e||----3---3---3--|-------------|---------------------------------| B||----3---3---3--|--3---3---3--|--1---1---1---1-1-1-1-1-1-1-0----| G||---------------|--2---2---2--|---------------------------------| D||---------------|-------------|--2---2---2---2-2-2-2-2-2-2-2----| A||----2---2---2--|-------------|--3---3---3---3-3-3-3-3-3-3-3----| E||----3---3---3--|-------------|---------------------------------| These are the violin notes. ||----G---G---G--|--A---D---A--|--C---C---C---C----C----B---A----| __Intro____________________________________________________________________________________________ GTR2(strong reverb) D D# D D# D D# D D# d||-----------------------|---------------------|---------------------|-------------------------| A||-----------------------|---------------------|---------------------|-------------------------| F||----1--1--1---2--2--2--|--1--1--1---2--2--2--|--1--1--1---2--2--2--|--1--1--1---2-2-2-2-2----| C||----2--2--2---3--3--3--|--2--2--2---3--3--3--|--2--2--2---3--3--3--|--2--2--2---2-3-3-3-3----| G||----2--2--2---3--3--3--|--2--2--2---3--3--3--|--2--2--2---3--3--3--|--2--2--2---3-3-3-3-3----| D||-----------------------|---------------------|---------------------|-------------------------| __Chorus__________________________________________________________________________________________ "Kill the president ..." GTR1 (x4) G D C e||----3---3---3--|-------------|---------------------------------| B||----3---3---3--|--3---3---3--|--1---1---1---1-1-1-1-1-1-1-0----| G||---------------|--2---2---2--|---------------------------------| D||---------------|-------------|--2---2---2---2-2-2-2-2-2-2-2----| A||----2---2---2--|-------------|--3---3---3---3-3-3-3-3-3-3-3----| E||----3---3---3--|-------------|---------------------------------| These are the violin notes. ||----G---G---G--|--A---D---A--|--C---C---C---C----C----B---A----| GTR2(overdrive) (x4) d||----------7---------7---------7--------------| A||--------5---------5---------5----------------| F||----6-7-------6-7-------6-7-------7-6-4------| C||----------------------------------------7----| G||---------------------------------------------| D||---------------------------------------------| __Ending_______________________________________________________________________________________________________________ "I'm just a man" GTR1 G D C GTR2(overdrive+tremolo) e||----3---3---3--|-------------|-------| d||---------| B||----3---3---3--|--3---3---3--|--1----| A||----5----| G||---------------|--2---2---2--|-------| F||---------| D||---------------|-------------|--2----| C||---------| A||----2---2---2--|-------------|--3----| G||---------| E||----3---3---3--|-------------|-------| D||---------|

    искать в аптеке
    список лекарств






    О сайтеАккордыХит-парадПоискУроки ФорумыИщу песню
    ПрограммыСвежачок-сПодпискаСтатьи
    Яндекс.Метрика