Табулатура Black Sabbath | Loser Gets It All гитара табулатуры уроки тексты песен Black Sabbath текст lyrics песня аккорды песни ноты нота электрогитара струна  
   А Б В Г Д Е Ж З И К Л М Н О П Р С Т У Ф Х Ч Ш Ы Э Ю Я       Разные песни
1-9 A B C D E F G H I J K L M N O P Q R S T U V W Y Z      Все исполнители in english

    



группа Black Sabbath, Табулатура песни Loser Gets It All

Продолжаем грести бабос на ботах в Telegram.
Только в этот раз есть вариант автоматизировать это дело, привлекая рефералов. Вы можете заработать если »

Группа: Black Sabbath - другие аккорды (243),   о группе (21 статей),   диски (20),   фотографии (152)
Табулатура песни: Loser Gets It All
Просмотров: 1234
Прислал: Sabbath (sabbath54@mail.ru)




    
from - Michael James 
Loser Gets It All
Black Sabbath - Japanese Forbidden CD (1995)
Fig A
|-----------------------------------------------
|-----------------------------------------------
|-----------------------------------------------
|-----------------------------------------------
|-------------8p6-------------------------------
|-6-8-8-8-6-8-----10-(6)-6-8-8-8-6-8-8h9p8-(6)--
Fig B
Verse:
|----------------------------------------------------------
|----------------------------------------------------------
|----------------------------------------------------------
|----------------------------------------------------------
|-10--------13--8----------10----------13--8-----3-------
|--8--------11--6-----------8----------11--6-----1-------
Fig C - after 2nd Verse
"You know it's a bad time...bad time to lose..."

Продолжаем грести бабос на ботах в Telegram.
Только в этот раз есть вариант автоматизировать это дело, привлекая рефералов. Вы можете заработать если »

|----------------------------------- |----------------------------------- |----------------------------------- |-8--------10--12--10-------7------- |-6---------8--10---8-------5--8---- |------------------------------6---- Fig D Solo: |------------------------------------- |------------------------------------- |------------------------------------- |----------8---10-------------8----7-- |-5--------6----8----5--------6----5--play 4x |-3------------------3---------------- After solo go back to Fig C, then back to Fig A.

www.rdrop.com/~mjames/sabbath/
поиск лекарств
список лекарств






О сайтеАккордыХит-парадПоискУроки ФорумыИщу песню
ПрограммыСвежачок-сПодпискаСтатьи
Яндекс.Метрика