Табулатура Black Sabbath | Kiss Of Death гитара табулатуры уроки тексты песен Black Sabbath текст lyrics песня аккорды песни ноты нота электрогитара струна  
   А Б В Г Д Е Ж З И К Л М Н О П Р С Т У Ф Х Ч Ш Ы Э Ю Я       Разные песни
1-9 A B C D E F G H I J K L M N O P Q R S T U V W Y Z      Все исполнители in english

    



группа Black Sabbath, Табулатура песни Kiss Of Death

Продолжаем грести бабос на ботах в Telegram.
Только в этот раз есть вариант автоматизировать это дело, привлекая рефералов. Вы можете заработать если »

Группа: Black Sabbath - другие аккорды (243),   о группе (21 статей),   диски (20),   фотографии (152)
Табулатура песни: Kiss Of Death
Просмотров: 887
Прислал: Sabbath (sabbath54@mail.ru)




    
from - Michael James 
Kiss Of Death
Black Sabbath - Forbidden (1995)

|-------0-----2---------0-----2----------0---------------3-2h3p2------
|-----0---0-----0-----0---0-----0------5---5---------5-----------5----
|---4-------4-------4-------4--------4-------4-----4---4-----------4--
|-2---------------2---------------/5-----------4/5--------------------
|---------------------------------------------------------------------
|---------------------------------------------------------------------
                                         **2**      **3**
|------------------------------------||-----------||-------||
|------------------------------------||-----------||-------||
|--9-9-----11-11/12-12/14-14/16--9-9-||-----------||-7-7-7-||
|--9-9-----11-11/12-12/14-14/16--9-9-||-9p7----7^-||-7-7-7-||
|--7-7------9--9/10-10/12-12/14--7-7-||-----10----||-------||
|------------------------------------||-----------||-------||
"you try to touch me..."
|------------------------------------------------------------------
|------------------------------------------------------------------
|-----4---5-----5-----4----------------4---5-----5-6-----6-5-----5-
|-------------5-----------7--------------------5-------5-------5---
|---7---7---7-------7---7---97-5----7---7---7-------7-------7-----

Продолжаем грести бабос на ботах в Telegram.
Только в этот раз есть вариант автоматизировать это дело, привлекая рефералов. Вы можете заработать если »

|-0---------------0----------------0------------------------------- |---------0-----0--7----1---1----------------------------- |-------0---0------8----1-----1--------------------------- |-----5-------5----7----2-------2------------------------- |---7--------------0----3--------------------------------- |-0-------------------------------------------------------- |---------------------------------------------------------- "nothing you can do will hurt me..." |------------------------------------------------------- |------------------------------------------------------- |-7/9-----14-13-12--5----7/9--7--------------7/9-------- |-7/9-----14-13-12--5----7/9--7-----5-5-5-5--7/9-------- |-5/7-----12-11-10--3----5/7--5-----5-5-5-5--5/7--and so on |-----------------------------------3-3-3-3------------- |-----------------------------/12----------------------------/12- |-----------------------------/12----------------------------/12- |-----------------------------/12----------------------------/12- |-----------------------------/12----------------------------/12- |---------------------------------------------------------------- |-0--3/5-6--5--3--3h5--3---0------0--3/5-6--5--3--3h5--3---0-----

www.rdrop.com/~mjames/sabbath/
поиск лекарств
список лекарств






О сайтеАккордыХит-парадПоискУроки ФорумыИщу песню
ПрограммыСвежачок-сПодпискаСтатьи
Яндекс.Метрика