Табулатура Black Sabbath | Kiss Of Death гитара табулатуры уроки тексты песен Black Sabbath текст lyrics песня аккорды песни ноты нота электрогитара струна  
   А Б В Г Д Е Ж З И К Л М Н О П Р С Т У Ф Х Ч Ш Ы Э Ю Я       Разные песни
1-9 A B C D E F G H I J K L M N O P Q R S T U V W Y Z      Все исполнители in english

    



группа Black Sabbath, Табулатура песни Kiss Of Death

Работа в Европе для граждан РФ, Украины, СНГ

  • минимальная зарплата $500.
  • виза и контракт на полгода, возможно продление
  • проживание оплачивает работодатель
  • нужен только загранпаспорт
  • оформление 190 €
  • данное предложение - отличная возможность эмигрировать в Европу и закрепиться здесь навсегда.

  • Мы свяжемся с Вами по WhatsApp или Viber и ответим на любые вопросы.
    на нашем сайте можно почитать подробнее »

    Группа: Black Sabbath - другие аккорды (243),   о группе (21 статей),   диски (20),   фотографии (152)
    Табулатура песни: Kiss Of Death
    Просмотров: 887
    Прислал: Sabbath (sabbath54@mail.ru)




        
    from - Michael James 
    Kiss Of Death
    Black Sabbath - Forbidden (1995)
    
    |-------0-----2---------0-----2----------0---------------3-2h3p2------
    |-----0---0-----0-----0---0-----0------5---5---------5-----------5----
    |---4-------4-------4-------4--------4-------4-----4---4-----------4--
    |-2---------------2---------------/5-----------4/5--------------------
    |---------------------------------------------------------------------
    |---------------------------------------------------------------------
                                             **2**      **3**
    |------------------------------------||-----------||-------||
    |------------------------------------||-----------||-------||
    |--9-9-----11-11/12-12/14-14/16--9-9-||-----------||-7-7-7-||
    |--9-9-----11-11/12-12/14-14/16--9-9-||-9p7----7^-||-7-7-7-||
    |--7-7------9--9/10-10/12-12/14--7-7-||-----10----||-------||
    |------------------------------------||-----------||-------||
    "you try to touch me..."
    |------------------------------------------------------------------
    |------------------------------------------------------------------
    |-----4---5-----5-----4----------------4---5-----5-6-----6-5-----5-
    |-------------5-----------7--------------------5-------5-------5---
    |---7---7---7-------7---7---97-5----7---7---7-------7-------7-----
    
    Узнай ВСЕ о своем друге в ВК или FB
    |-0---------------0----------------0------------------------------- |---------0-----0--7----1---1----------------------------- |-------0---0------8----1-----1--------------------------- |-----5-------5----7----2-------2------------------------- |---7--------------0----3--------------------------------- |-0-------------------------------------------------------- |---------------------------------------------------------- "nothing you can do will hurt me..." |------------------------------------------------------- |------------------------------------------------------- |-7/9-----14-13-12--5----7/9--7--------------7/9-------- |-7/9-----14-13-12--5----7/9--7-----5-5-5-5--7/9-------- |-5/7-----12-11-10--3----5/7--5-----5-5-5-5--5/7--and so on |-----------------------------------3-3-3-3------------- |-----------------------------/12----------------------------/12- |-----------------------------/12----------------------------/12- |-----------------------------/12----------------------------/12- |-----------------------------/12----------------------------/12- |---------------------------------------------------------------- |-0--3/5-6--5--3--3h5--3---0------0--3/5-6--5--3--3h5--3---0-----

    www.rdrop.com/~mjames/sabbath/
    искать в аптеке
    список лекарств






    О сайтеАккордыХит-парадПоискУроки ФорумыИщу песню
    ПрограммыСвежачок-сПодпискаСтатьи
    Яндекс.Метрика