Табулатура Black Sabbath | Guilty As Hell гитара табулатуры уроки тексты песен Black Sabbath текст lyrics песня аккорды песни ноты нота электрогитара струна  
   А Б В Г Д Е Ж З И К Л М Н О П Р С Т У Ф Х Ч Ш Ы Э Ю Я       Разные песни
1-9 A B C D E F G H I J K L M N O P Q R S T U V W Y Z      Все исполнители in english

    



группа Black Sabbath, Табулатура песни Guilty As Hell

Продолжаем грести бабос на ботах в Telegram.
Только в этот раз есть вариант автоматизировать это дело, привлекая рефералов. Вы можете заработать если »

Группа: Black Sabbath - другие аккорды (243),   о группе (21 статей),   диски (20),   фотографии (152)
Табулатура песни: Guilty As Hell
Просмотров: 1216
Прислал: Sabbath (sabbath54@mail.ru)




    
from - Michael James 
Guilty As Hell
Black Sabbath - Forbidden (1995)
fig a
|---------------------------------------------------------------------
|---------------------------------------------------------------------
|------12-11--9----9-11--12/14--12-11--9------------------------------
|------12-11--9----9-11--12/14--12-11--9------------------------------
|------10--9--7----7--9--10/12--10--9--7---0h2-0h2--------------------
|---0----------------------------------------------------------------
|---------------------------------------------------------------------
|---------------------------------------------------------------------
|------12-11--9----9-11--12/14--12---9--------------------------------
|------12-11--9----9-11--12/14--12---9-------0h2----------------------
|------10--9--7----7--9--10/12--10---7---0h2--------------------------
|---0----------------------------------------------------------------

fig b
|---------------------------------------------------------------------
|---------------------------------------------------------------------
|---------------------------------------------------------------------
|---5-5-5-5-5-5-5-5-5-5-5-5-5-5--5-4---4-3----------------------------
|---5-5-5-5-5-5-5-5-5-5-5-5-5-5------5-----5-------------------------
|---3-3-3-3-3-3-3-3-3-3-3-3-3-3-----------------(fig a)---------------
fig c
|-2---2-2-2----0---0-0-0----2---2-2-2----0--------3---------2---2-2-3----0---
|-3---3-3-3----1---1-1-1----3---3-3-3----1--------0---------3---3-3-3----1---
|-2---2-2-2----0---0-0-0----2---2-2-2----0--------0---------2---2-2-2----0---
|-0---0-0-0----2---2-2-2----0---0-0-0----2--------0---------0---0-0-0----2---
|--------------3---3-3-3-----------------3--3p2---2-------3--------------3---

Продолжаем грести бабос на ботах в Telegram.
Только в этот раз есть вариант автоматизировать это дело, привлекая рефералов. Вы можете заработать если »

|-----------------------------------------------5-3---3h5-------------------- |-0-0-0-------------------------------------------- |-1-1-1-------------------------------------------- |-0-0-0---------/5--3------------------------------ |-2-2-2--5---4--/5--3------------------------------ |-3-3-3--5---4--/3--1---(back to fig a)------------ |--------3---2------------------------------------- cool fig d |--------------------------------------------------------------------- |--------------------------------------------------------------------- |--------------------------------------------------------------------- |---------------------------------------------------3----------------- |---/7-6---5---7-----/5-4---3---5-----/3-2---1---3--3----------------- |-0------7-------5--------5-------3--------3--------1----------------- fig e |--------------------------------------------------------------------- |--------------------------------------------------------------------- |-2--2-2--3--/7-7-7-6-6--5--4--3--2--2-2-3--/7-7-7-6-6--5--4--3------- |-2--2-2--3--/7-7-7-6-6--5--4--3--2--2-2-3--/7-7-7-6-6--5--4--3------- |-0--0-0--1--/5-5-5-4-4--3--2--1--0--0-0-1--/5-5-5-4-4--3--2--1------- |--------------------------------------------------------------------- |--------------------------------------------------------------------- |--------------------------------------------------------------------- |-5--5-5--7-/10-10-10-9-9--8--7--6--5---4---4---3--------------------- |-5--5-5--7-/10-10-10-9-9--8--7--6--5---4---4---3--------------------- |-3--3-3--5--/8--8--8-7-7--6--5--4--3---2---2---1--------------------- |---------------------------------------------------------------------

www.rdrop.com/~mjames/sabbath/
лекарство в аптеке
список лекарств






О сайтеАккордыХит-парадПоискУроки ФорумыИщу песню
ПрограммыСвежачок-сПодпискаСтатьи
Яндекс.Метрика