Табулатура Black Sabbath | Shaking Off The Chains гитара табулатуры уроки тексты песен Black Sabbath текст lyrics песня аккорды песни ноты нота электрогитара струна  
   А Б В Г Д Е Ж З И К Л М Н О П Р С Т У Ф Х Ч Ш Ы Э Ю Я       Разные песни
1-9 A B C D E F G H I J K L M N O P Q R S T U V W Y Z      Все исполнители in english

    



группа Black Sabbath, Табулатура песни Shaking Off The Chains

Работа в Европе для граждан РФ, Украины, СНГ

  • минимальная зарплата $500.
  • виза и контракт на полгода, возможно продление
  • проживание оплачивает работодатель
  • нужен только загранпаспорт
  • оформление 190 €
  • данное предложение - отличная возможность эмигрировать в Европу и закрепиться здесь навсегда.

  • Мы свяжемся с Вами по WhatsApp или Viber и ответим на любые вопросы.
    на нашем сайте можно почитать подробнее »

    Группа: Black Sabbath - другие аккорды (243),   о группе (21 статей),   диски (20),   фотографии (152)
    Табулатура песни: Shaking Off The Chains
    Просмотров: 965
    Прислал: Sabbath (sabbath54@mail.ru)




        
    from - Michael James 
    Shaking Off The Chains
    Black Sabbath - Forbidden (1995)
    
    |----------------------------------------------------------
    |----------------------------------------------------------
    |------7-----8-----98/98/98-7-----8-----98/98/98-----
    |------7-----8-----98/98/98-7-----8-----98/98/98-----
    |--xx--5-0-0-6-0-0-76/76/76-5-0-0-6-0-0-76/76/76-----
    |-x--------------------------------------------------------
    |----------------------------------------------------------
    |----------------------------------------------------------
    |-12--12-12-12--12-12-12--12-12-12-------------------------
    |-12--12-12-12--12-12-12--12-12-12-------------------------
    
    Узнай ВСЕ о своем друге в ВК или FB
    |-10--10-10-10--10-10-10--10-10-10------------------------- |---------------------------------------------------------- |-------------------------------------------------------------- |-------------------------------------------------------------- |-------------------------------------------------------------- |----5-6-5-5-3h5p3---3--------------5-6-5-5-3h5p3---3---------- |-3----------------6---5h6p5---3--3---------------6---5h6p5---3 |----------------------------6------------------------------6--

    www.rdrop.com/~mjames/sabbath/
    поиск лекарств
    список лекарств






    О сайтеАккордыХит-парадПоискУроки ФорумыИщу песню
    ПрограммыСвежачок-сПодпискаСтатьи
    Яндекс.Метрика