Табулатура Black Sabbath | Shaking Off The Chains гитара табулатуры уроки тексты песен Black Sabbath текст lyrics песня аккорды песни ноты нота электрогитара струна  
   А Б В Г Д Е Ж З И К Л М Н О П Р С Т У Ф Х Ч Ш Ы Э Ю Я       Разные песни
1-9 A B C D E F G H I J K L M N O P Q R S T U V W Y Z      Все исполнители in english

    



группа Black Sabbath, Табулатура песни Shaking Off The Chains

Продолжаем грести бабос на ботах в Telegram.
Только в этот раз есть вариант автоматизировать это дело, привлекая рефералов. Вы можете заработать если »

Группа: Black Sabbath - другие аккорды (243),   о группе (21 статей),   диски (20),   фотографии (152)
Табулатура песни: Shaking Off The Chains
Просмотров: 965
Прислал: Sabbath (sabbath54@mail.ru)




    
from - Michael James 
Shaking Off The Chains
Black Sabbath - Forbidden (1995)

|----------------------------------------------------------
|----------------------------------------------------------
|------7-----8-----98/98/98-7-----8-----98/98/98-----
|------7-----8-----98/98/98-7-----8-----98/98/98-----
|--xx--5-0-0-6-0-0-76/76/76-5-0-0-6-0-0-76/76/76-----
|-x--------------------------------------------------------
|----------------------------------------------------------
|----------------------------------------------------------
|-12--12-12-12--12-12-12--12-12-12-------------------------
|-12--12-12-12--12-12-12--12-12-12-------------------------

Продолжаем грести бабос на ботах в Telegram.
Только в этот раз есть вариант автоматизировать это дело, привлекая рефералов. Вы можете заработать если »

|-10--10-10-10--10-10-10--10-10-10------------------------- |---------------------------------------------------------- |-------------------------------------------------------------- |-------------------------------------------------------------- |-------------------------------------------------------------- |----5-6-5-5-3h5p3---3--------------5-6-5-5-3h5p3---3---------- |-3----------------6---5h6p5---3--3---------------6---5h6p5---3 |----------------------------6------------------------------6--

www.rdrop.com/~mjames/sabbath/
лекарство в аптеке
список лекарств






О сайтеАккордыХит-парадПоискУроки ФорумыИщу песню
ПрограммыСвежачок-сПодпискаСтатьи
Яндекс.Метрика