Табулатура Black Sabbath | Can`t Get Close Enough To You гитара табулатуры уроки тексты песен Black Sabbath текст lyrics песня аккорды песни ноты нота электрогитара струна  
   А Б В Г Д Е Ж З И К Л М Н О П Р С Т У Ф Х Ч Ш Ы Э Ю Я       Разные песни
1-9 A B C D E F G H I J K L M N O P Q R S T U V W Y Z      Все исполнители in english

    



группа Black Sabbath, Табулатура песни Can`t Get Close Enough To You

Продолжаем грести бабос на ботах в Telegram.
Только в этот раз есть вариант автоматизировать это дело, привлекая рефералов. Вы можете заработать если »

Группа: Black Sabbath - другие аккорды (243),   о группе (21 статей),   диски (20),   фотографии (152)
Табулатура песни: Can`t Get Close Enough To You
Просмотров: 1307
Прислал: Sabbath (sabbath54@mail.ru)




    

from - Michael James 
Can't Get Close Enough
Black Sabbath - Forbidden

|--------------------------------------------------------------
|--------------------------------------------------------------
|--------------------------------------------------------------
|--------------------------------------------------------------
|------7-------7-------7-------7-------7-------7---------------
|--5-5---4h5-4-4h5-5-5---4h5-4-4h5-5-5---4h5-4-4h5-5-----------

|---------------------------------------------------------------
|---------------------------------------------------------------
|---------------------------------------------------------------
|-----5-5-----5-------4-4-----4-------5-5-----5------4-4-----3--
|-0-3-----3-3-----0-2-----2-2-----0-3-----3-3----0-2-----2-1----
|---------------------------------------------------------------

Продолжаем грести бабос на ботах в Telegram.
Только в этот раз есть вариант автоматизировать это дело, привлекая рефералов. Вы можете заработать если »

|--------------------------------------------------------------- |--------------------------------------------------------------- |-----2-----4-----5----/7--5-4-------2-----4-----5-----7/9-9-9- |-----2-----4-----5----/7--5-4-------2-----4-----5-----7/9-9-9- |-0-0---0-0---0-0---0-0-----------0-0---0-0---0-0---0-0--------- |--------------------------------------------------------------- cant get close enough to you... |-------------------------------------------------------------- |-------------------------------------------------------------- |-5---------4--------5---------4--3---------------------------- |-5---------4--------5---------4--3---------------------------- |-3--5-3-0--2----0-2-3--5-3-0--2--1---------------------------- |--------------------------------------------------------------

www.rdrop.com/~mjames/sabbath/
поиск лекарств
список лекарств






О сайтеАккордыХит-парадПоискУроки ФорумыИщу песню
ПрограммыСвежачок-сПодпискаСтатьи
Яндекс.Метрика