Табулатура Black Sabbath | Get A Grip гитара табулатуры уроки тексты песен Black Sabbath текст lyrics песня аккорды песни ноты нота электрогитара струна  
   А Б В Г Д Е Ж З И К Л М Н О П Р С Т У Ф Х Ч Ш Ы Э Ю Я       Разные песни
1-9 A B C D E F G H I J K L M N O P Q R S T U V W Y Z      Все исполнители in english

    



группа Black Sabbath, Табулатура песни Get A Grip

Продолжаем грести бабос на ботах в Telegram.
Только в этот раз есть вариант автоматизировать это дело, привлекая рефералов. Вы можете заработать если »

Группа: Black Sabbath - другие аккорды (243),   о группе (21 статей),   диски (20),   фотографии (152)
Табулатура песни: Get A Grip
Просмотров: 1492
Прислал: Sabbath (sabbath54@mail.ru)




    

from - Michael James 
Get A Grip
Black Sabbath - Forbidden (1995)

|----------------------------------------------------------
|----------------------------------------------------------
|-----------------------5-------------------------5--------
|-----------------------5-------------------------5--------
|-------1---------1-----3---------1---------1-----3--------
|-1h2h3---3-1h2h3---3-------1h2h3---3-1h2h3---3------------
"that aint nice..."
|----------------------------------------------------------
|----------------------------------------------------------
|-------------/7--5-----------3-3---3/5--------------------
|-5---8--7/8--/7--5-----------3-3---3/5--------------------
|-5---8--7/8--/5--3---1-1-1-1-1-1p0-1/3--------------------
|-3---6--5/6----------------------------1-2-3--------------
|----------------------------------------------------------
|----------------------------------------------------------
|-------------3------------2-------------5-----------4-----
|-------------3------------2-------------5-----------4-----

Продолжаем грести бабос на ботах в Telegram.
Только в этот раз есть вариант автоматизировать это дело, привлекая рефералов. Вы можете заработать если »

|---0-1-1-1-1-1--1-0-0-0-0-0-0-1-3-3-3-3-3-3-2-2-2-2-2----- |-3-------------------------------------------------------- "its up to you..." |---------------------------------------------------------- |---------------------------------------------------------- |-2--------------5-----------2--------------5-------------- |-2----------5---5-----------2----------5---5-------------- |-0----------5---3-----------0----------5---3-------------- |------------3--------------------------3------------------ "here we go..." |---------------------------------------------------------- |---------------------------------------------------------- |----/8--7-5-7-7/87----/8--7-5-7-7/87-------------------- |-7--/8--7-5-7-7/87-7--/8--7-5-7-7/87-------------------- |-7--/6--5-3-5-5/65-7--/6--5-3-5-5/65-------------------- |-5------------------5-------------------------------------

www.rdrop.com/~mjames/sabbath/
поиск лекарств
список лекарств






О сайтеАккордыХит-парадПоискУроки ФорумыИщу песню
ПрограммыСвежачок-сПодпискаСтатьи
Яндекс.Метрика