Табулатура Black Sabbath | The Illusion Of Power гитара табулатуры уроки тексты песен Black Sabbath текст lyrics песня аккорды песни ноты нота электрогитара струна  
   А Б В Г Д Е Ж З И К Л М Н О П Р С Т У Ф Х Ч Ш Ы Э Ю Я       Разные песни
1-9 A B C D E F G H I J K L M N O P Q R S T U V W Y Z      Все исполнители in english

    



группа Black Sabbath, Табулатура песни The Illusion Of Power

Продолжаем грести бабос на ботах в Telegram.
Только в этот раз есть вариант автоматизировать это дело, привлекая рефералов. Вы можете заработать если »

Группа: Black Sabbath - другие аккорды (243),   о группе (21 статей),   диски (20),   фотографии (152)
Табулатура песни: The Illusion Of Power
Просмотров: 1333
Прислал: Sabbath (sabbath54@mail.ru)




    

from - Michael James 
The Illusion Of Power
Black Sabbath - Forbidden (1995)

|--------------------------------------------------------------
|--------------------------------------------------------------
|--------7-----7--9--9--7-----7--------7-----7--9--9--7-----7--
|--9--9-----9--------------9-----9--9-----9--------------9-----
|--------------------------------------------------------------
|--------------------------------------------------------------

|----------------------------------------------------------
|----------------------------------------------------------
|--9-------------------------------------------------------
|--9-------------------------------------------------------
|--7---------------------2--1------5-/7--------------------
|------------------0--3--------0---------------------------

|----------------------------------------------------------
|----------------------------------------------------------
|----------------------------------------------------------

Продолжаем грести бабос на ботах в Telegram.
Только в этот раз есть вариант автоматизировать это дело, привлекая рефералов. Вы можете заработать если »

|-----7--6~-------5^-5~-------7--6~-------5^--5~----------- |--5--------7--8--------6--5--------7--8----------6-------- |---------------------------------------------------------- |----------------------------------------------------------- |----------------------------------------------------------- |-----------------------------5-5-5-5-4--3-3-3-3-2---------- |--7---7----------------------5-5-5-5-4--3-3-3-3-2--2-5-7--- |--7---7--7--6-----6----7-----3-3-3-3-2--1-1-1-1-0--2-5-7--- |--5---5--------7-----------------------------------0-3-5--- |---------------------------------------------------------------- |---------------------------------------------------------------- |---------------------------------------------------------------- |---------------------------------------------------------------- |---------------5~~-----------2~~---------------5~~---------2~~-- |--0---0---5/7--------0--2/3-------0---0---5/7-------0--2/3------

www.rdrop.com/~mjames/sabbath/
поиск лекарств
список лекарств






О сайтеАккордыХит-парадПоискУроки ФорумыИщу песню
ПрограммыСвежачок-сПодпискаСтатьи
Яндекс.Метрика