Табулатура Black Sabbath | Evil Eye гитара табулатуры уроки тексты песен Black Sabbath текст lyrics песня аккорды песни ноты нота электрогитара струна  
   А Б В Г Д Е Ж З И К Л М Н О П Р С Т У Ф Х Ч Ш Ы Э Ю Я       Разные песни
1-9 A B C D E F G H I J K L M N O P Q R S T U V W Y Z      Все исполнители in english

    



группа Black Sabbath, Табулатура песни Evil Eye

Продолжаем грести бабос на ботах в Telegram.
Только в этот раз есть вариант автоматизировать это дело, привлекая рефералов. Вы можете заработать если »

Группа: Black Sabbath - другие аккорды (243),   о группе (21 статей),   диски (20),   фотографии (152)
Табулатура песни: Evil Eye
Просмотров: 1174
Прислал: Sabbath (sabbath54@mail.ru)




    
from - Michael James 
Evil Eye
Black Sabbath - Cross Purposes (1994)
|----------------------------------------------------------
|----------------------------------------------------------
|----------------------------------------------------------
|-------------------5p4------------------------------------
|-----------------------5--------------------5-4~---------
|-1-3-3-3-1-3-3-1-3---------1-3-3-3-1-3-3-1-3--------------
   H
|------------------------------------------------------------
|------------------------------------------------------------
|-------------------------------7----5-----------------------
|--2----1~----------------------7----5-----------------------
|----00--------3-------3-----3--5-00-3------3-------3-----3--
|----------3-5---5-3-5---5-3------------3-5---5-3-5---5-3----
         "people say ...got an evil eye"
|----------------------------------------------------------
|----------------------------------------------------------
|-------------------------------7--5-----------------------
|--2----1~----------------------7--5--7--------------------
|----00--------3-------3-----3--5--3--7--------------------
|----------3-5---5-3-5---5-3----------5--------------------
Solo:
|---------------------------------------15-----------------
|-------------------------8----------//----18p15-18^-------
|-------------------3~-/7------75--//---------------------
|-----------------3----------------------------------------
|-------------3-5------------------------------------------
|-1-3-3-3-1-3----------------------------------------------
|-15-----------15-------18p15--18p15---------18-20-20^-----
|----18p15-18^----18p15------18-----18-18/20---------------
|----------------------------------------------------------
|----------------------------------------------------------
|----------------------------------------------------------
|----------------------------------------------------------
|-20^20^20^20^-20p18---------------------------------------
|--------------------20^--------------------------------
|----------------------------------------------------------
|----------------------------------------------------------
|----------------------------------------------------------
|----------------------------------------------------------
Fig A
Fig B
then this thing at the end of fig B
"Evil Eye..."

Продолжаем грести бабос на ботах в Telegram.
Только в этот раз есть вариант автоматизировать это дело, привлекая рефералов. Вы можете заработать если »

|------------------------------|------------------------------- |------------------------------|------------------------------- |--7---5---7-------------(X 2)-|-9--7--9----------------------- |--7---5---7-------------------|-9--7--9----------------------- |--5---3---5------5-7-5h7-5----|-7--5--7------7-9-7h9p7-------- |-------------5-8-----------8--|---------7-10-----------10-7--- "Evil Eye..." |---------------------------------------------------------- |---------------------------------------------------------- |-9---7---------------------------------------------------- |-9---7---9---8---7---6------------------------------------ |-7---5---9---8---7---6------------------------------------ |---------7---6---5---4--(back to Fig A)------------------- during solo 2, play fig A, but 1 step higher, in A, then progress to playing Fig A in B during solo 3 |---------------------------------------------------------- |---------------------------------------------------------- |-2/5----5/7----4/5----5/7----2-2-------------------------- |-2/5----5/7----4/5----5/7----2-2-------------------------- |-----------------------------0-0-------------------------- |---------------------------------------------------------- Solo 3: |---------------------------------------------------------- |----------------------------------8----------------------- |-----5~-------7^-5------7^-7^---7^--7^-7-5-7--575757------ |-5h7------5-7-------5-7-----------------------------7-5-7- |---------------------------------------------------------- |---------------------------------------------------------- |-12p8-10p8-12p8-10p8-12p8-10p8---------------------------- |-----8----8----8----8----8----8--------------------------- |---------------------------------------------------------- |--------------------------------and so on...-------------- |---------------------------------------------------------- |----------------------------------------------------------

www.rdrop.com/~mjames/sabbath/
искать в аптеке
список лекарств






О сайтеАккордыХит-парадПоискУроки ФорумыИщу песню
ПрограммыСвежачок-сПодпискаСтатьи
Яндекс.Метрика