Табулатура Black Sabbath | Cardinal Sin гитара табулатуры уроки тексты песен Black Sabbath текст lyrics песня аккорды песни ноты нота электрогитара струна  
   А Б В Г Д Е Ж З И К Л М Н О П Р С Т У Ф Х Ч Ш Ы Э Ю Я       Разные песни
1-9 A B C D E F G H I J K L M N O P Q R S T U V W Y Z      Все исполнители in english

    



группа Black Sabbath, Табулатура песни Cardinal Sin

Продолжаем грести бабос на ботах в Telegram.
Только в этот раз есть вариант автоматизировать это дело, привлекая рефералов. Вы можете заработать если »

Группа: Black Sabbath - другие аккорды (243),   о группе (21 статей),   диски (20),   фотографии (152)
Табулатура песни: Cardinal Sin
Просмотров: 994
Прислал: Sabbath (sabbath54@mail.ru)




    

from - Michael James 
Cardinal Sin
Black Sabbath - Cross Purposes (1994)
|----------------------------------------------------------
|----------------------------------------------------------
|--6-------------------------------------------------------
|--6-----1-2/4--2---2-4-5/7--5----------7------------------
|--4---4--------2------------5-----5----7-------(X 2)------
|---------------0------------3----------5------------------
"where do you go.."
|----------------------------------------------------------
|----------------------------------------------------------
|--7-7-6----7-7-6----10-10-9---7-7-6---7-7-6---10-9--------
|--7-7-6----7-7-6----10-10-9---7-7-6---7-7-6---10-9--------
|----------------------------------------------------------
|----------------------------------------------------------
"all the world is watching..."
|--(0)-----------------------(0)---------------------------
|--(0)-----------------------(0)---------------------------
|-------------3-------------------------3---5--------------
|-2-----------3-------------2-----------3---5--------------
|-2---------2-1-------------2---------2-1---3-----back to verse
|-0---0-2-3-----------------0---0-2-3----------------------

|----------------------------------------------------------

Продолжаем грести бабос на ботах в Telegram.
Только в этот раз есть вариант автоматизировать это дело, привлекая рефералов. Вы можете заработать если »

|---------------------------------------------------------- |-9-11-12------9-11-12-14-1211-9------------------------- |-9-11-12------9-11-12-14-1211-9------------------------- |-7--9-10------7--9-10-12-10-9-7------------------------- |---------------------------------------------------------- "when you sin..." *2nd time* w/ fill 1 |----------------------(X 2)-||---------------------------- |----------------------------||---------------------------- |----------------------------||---------------------------- |----------5~---------4~--x-||--9------------------------- |--3-3-3-3----3-3-3-3--------||--7----7-6-----5-4---------- |----------------------------||--0--------7-------5-------- Fill 1 |-------------------| |-5--7---8--10--12--| |-7^-9^-10^-12^-14^-| |-------------------| |-------------------| |-------------------|

www.rdrop.com/~mjames/sabbath/
искать в аптеке
список лекарств






О сайтеАккордыХит-парадПоискУроки ФорумыИщу песню
ПрограммыСвежачок-сПодпискаСтатьи
Яндекс.Метрика