Табулатура Black Sabbath | The Hand That Rocks The Cradle гитара табулатуры уроки тексты песен Black Sabbath текст lyrics песня аккорды песни ноты нота электрогитара струна  
   А Б В Г Д Е Ж З И К Л М Н О П Р С Т У Ф Х Ч Ш Ы Э Ю Я       Разные песни
1-9 A B C D E F G H I J K L M N O P Q R S T U V W Y Z      Все исполнители in english

    



группа Black Sabbath, Табулатура песни The Hand That Rocks The Cradle

Продолжаем грести бабос на ботах в Telegram.
Только в этот раз есть вариант автоматизировать это дело, привлекая рефералов. Вы можете заработать если »

Группа: Black Sabbath - другие аккорды (243),   о группе (21 статей),   диски (20),   фотографии (152)
Табулатура песни: The Hand That Rocks The Cradle
Просмотров: 1252
Прислал: Sabbath (sabbath54@mail.ru)




    
from - Michael James 
The Hand The Rocks The Cradle
Black Sabbath - Cross Purposes (1994)

"young life. too young..."
|-------0-----0---------0-----0----------0-----0---------0-----0-----
|---7---------------7---------------8----------------8---------------
|-7---------------7---------------7----------------7-----------------
|-----9-----9---9-----9-----9---9-----9------9---9-----9-----9---9---
|--------------------------------------------------------------------
|--------------------------------------------------------------------
"dont feel the hunger..."
|--------0-----0---------0------0---------0-----0---------0-----0----
|---10---------------9----------------8---------------8--------------
|-9----------------9----------------7---------------7----------------
|------9-----9---9-----9------9---9-----9-----9---9-----9-----9---9--
|--------------------------------------------------------------------
|--------------------------------------------------------------------
"When the hand that ricks the cradle..."

Продолжаем грести бабос на ботах в Telegram.
Только в этот раз есть вариант автоматизировать это дело, привлекая рефералов. Вы можете заработать если »

|------------------------------------------------------------ |------------------------------------------------------------ |------------------------------------------------------------ |---------------0-1-2-2-3-4-4--------------0-1-2------------- |--2--0--2---2---------------2--0--2----2-------2--0-------- |------------------------------------------------------------ "no grave could be deep enough..." |------------------------------------------------------------ |------------------------------------------------------------ |----------------2-----4----4-2-----------------2------------ |-5--5--5--5-----2-----4----4-2-5--5--5--5--2-5-2-2---2-4-5-- |-5--5--5--5-----0-----2----2-0-5--5--5--5--2-5-0-2---2-4-5-- |-3--3--3--3p(0)----------------3--3--3--3--0-3---0---0-2-3--

www.rdrop.com/~mjames/sabbath/
поиск лекарств
список лекарств






О сайтеАккордыХит-парадПоискУроки ФорумыИщу песню
ПрограммыСвежачок-сПодпискаСтатьи
Яндекс.Метрика