Табулатура Black Sabbath | Back To Eden гитара табулатуры уроки тексты песен Black Sabbath текст lyrics песня аккорды песни ноты нота электрогитара струна  
   А Б В Г Д Е Ж З И К Л М Н О П Р С Т У Ф Х Ч Ш Ы Э Ю Я       Разные песни
1-9 A B C D E F G H I J K L M N O P Q R S T U V W Y Z      Все исполнители in english

    



группа Black Sabbath, Табулатура песни Back To Eden

Продолжаем грести бабос на ботах в Telegram.
Только в этот раз есть вариант автоматизировать это дело, привлекая рефералов. Вы можете заработать если »

Группа: Black Sabbath - другие аккорды (243),   о группе (21 статей),   диски (20),   фотографии (152)
Табулатура песни: Back To Eden
Просмотров: 951
Прислал: Sabbath (sabbath54@mail.ru)




    
from - Michael James 
Back To Eden
Black Sabbath - Cross Purposes

|----------------------------------------------------------
|----------------------------------------------------------
|----------------------------------------------------------
|-------------------------5------------------------5-------
|----7-5h7--------------5---7-----7-5h7--------------7-----
|--0-------6-5----5-6-7---------0-------6-5----5-6---------

|----------------------------------------------------------
|----------------------------------------------------------
|---------------------------------------------------7-7-7--
|-------------------------5-------------------------5-5-5--
|----7-5h7--------------5---7-----7-5h7--------------------
|--0-------6-5----5-6-7---------0-------6-5-----5-6--------

when you're tired of...

Продолжаем грести бабос на ботах в Telegram.
Только в этот раз есть вариант автоматизировать это дело, привлекая рефералов. Вы можете заработать если »

|-2---2---2-----------------2---2---2------------------- |-3---3---3-----------5^^5--3---3---3------------------- |-2---2---2----3---5--------2---2---2----3---2---------- |-0---0---0----3---5--------0---0---0----3---2---------- |--------------1---3---------------------1---0---------- |------------------------------------------------------- |------------------------------------------------------------ |------------------------------------------------------------ |--6-----6-8-9-8-6------------6-8-9-8-6----------------9-8--- |--6---6----------7--------6-----------7---9-9/11-9--------- |--4--------------------------------------------------------- |------------------------------------------------------------

www.rdrop.com/~mjames/sabbath/
лекарство в аптеке
список лекарств






О сайтеАккордыХит-парадПоискУроки ФорумыИщу песню
ПрограммыСвежачок-сПодпискаСтатьи
Яндекс.Метрика