Табулатура Black Sabbath | Dying For Love гитара табулатуры уроки тексты песен Black Sabbath текст lyrics песня аккорды песни ноты нота электрогитара струна  
   А Б В Г Д Е Ж З И К Л М Н О П Р С Т У Ф Х Ч Ш Ы Э Ю Я       Разные песни
1-9 A B C D E F G H I J K L M N O P Q R S T U V W Y Z      Все исполнители in english

    



группа Black Sabbath, Табулатура песни Dying For Love

Продолжаем грести бабос на ботах в Telegram.
Только в этот раз есть вариант автоматизировать это дело, привлекая рефералов. Вы можете заработать если »

Группа: Black Sabbath - другие аккорды (243),   о группе (21 статей),   диски (20),   фотографии (152)
Табулатура песни: Dying For Love
Просмотров: 1446
Прислал: Sabbath (sabbath54@mail.ru)




    
from - Michael James 
Dying For Love
Black Sabbath - Cross Purposes (1994)

|----6------------6-5--6-8^--6--------8---6-------6^-------
|-6^---^6---------------------------8---8---8-6h8----------
|--------------3^------------------------------------------
|----------------------------------------------------------
|----------------------------------------------------------
|----------------------------------------------------------
|-10-------10----8----------------8-6---6---5-------6-5-------
|----11-------11---10---------8-----------8---6---------6-----
|-------12----------------------7---------------5---------5^--
|-------------------------------------------------------------
|-------------------------------------------------------------
|-------------------------------------------------------------
|----------[AH]--------------------------------------------
|----------------------6-8---------------------------------
|-5^p3---5^-5----(5)/7-----7~~--5-7p5h7p5h7p53h5p3-h5-----
|------5---------------------------------------------------
|----------------------------------------------------------
|----------------------------------------------------------
|----------------------------------------------------------
|----8-10-10^-^10-8---11-10-8------11-10-8-----------------
|-/7--------------------------10-7---------10-7------------
|----------------------------------------------------------
|----------------------------------------------------------
|----------------------------------------------------------
|-----------------------------------------
|-6p3-------------------------------------
|----6p5p3-5p3p2---3p2----5^^5-3----------
|----------------5-----5---------5-3------
|-----------------------------------------
|-----------------------------------------

|-------------------------------------------------------------------

Продолжаем грести бабос на ботах в Telegram.
Только в этот раз есть вариант автоматизировать это дело, привлекая рефералов. Вы можете заработать если »

|-------1-----1---------1-------1-------1-----1---------1----------- |---0-------0---0---0-------0-------0-------0---0---0-----------0--- |-------------------------3---3-------------------3---3-----1------- |-3---3-----------3---3-----------3---3-------------------3---3----- |------------------------------------------------------------------- |-------0--------------0----------------------------------- |-----1---1----------1---1---------1----------------------- |---2-------2------0-------0-----2------------------------- |-------------2--------------2----------------------------- |-0-------------/3-------------------/5----3----2-----0-and so on... |------------------------------1-------------------3------- "Hear them call you..." |---------------------------------|------------------------ |---------------------------------|------------------------ |-2-2-2---2-----2---2-5-2-2-2---2-|-2-4-5---7----9--------- |-2-2-2---2-----2---2-5-2-2-2---2-|-2-4-5---7----9--------- |-0-0-0---0-----0---0-3-0-0-0---0-|-0-2-3---5----7--------- |-------3---------3-----------3---|------------------------ |---------------------------------------------10----------- |--------8/10-12-10-7--------------8/10-12-10----12-------- |---9-11--------------7-9-----9-11------------------------- |-9-------------------------9------------------------------ |---------------------------------------------------------- |---------------------------------------------------------- |---------------------------------------------------------- |---------------------------------------------------------- |---------------4-5---------------------------------------- |-7-7-7-5-7---7-4-5---5----3----7---5---4----7------------- |-7-7-7-5-7---7-2-3---5----3----5---3---2-5--7------------- |-5-5-5-3-5---5-------3----1--------------3--5-------------

www.rdrop.com/~mjames/sabbath/
искать в аптеке
список лекарств






О сайтеАккордыХит-парадПоискУроки ФорумыИщу песню
ПрограммыСвежачок-сПодпискаСтатьи
Яндекс.Метрика