Аккорды Black Sabbath | Virtual Death гитара табулатуры уроки тексты песен Black Sabbath текст lyrics песня аккорды песни ноты нота электрогитара струна  
   А Б В Г Д Е Ж З И К Л М Н О П Р С Т У Ф Х Ч Ш Ы Э Ю Я       Разные песни
1-9 A B C D E F G H I J K L M N O P Q R S T U V W Y Z      Все исполнители in english

    



группа Black Sabbath, Аккорды песни Virtual Death

Продолжаем грести бабос на ботах в Telegram.
Только в этот раз есть вариант автоматизировать это дело, привлекая рефералов. Вы можете заработать если »

Группа: Black Sabbath - другие аккорды (243),   о группе (21 статей),   диски (20),   фотографии (152)
Аккорды песни: Virtual Death
Просмотров: 1072
Подобрал: Sabbath (sabbath54@mail.ru)




    
from - Michael James 
Virtual Death
Black Sabbath - Cross Purposes (1994)
Fgi A
|----------------------------------------------------------
|----------------------------------------------------------
|---------------9-9-8~---------------9---7~----------------
|--------------------------------7h9---9-------------------
|-2-2---2---2---7-7-6--2-2---2-------7---5-----------------
|-0-0---0---0----------0-0---0---5h7---7-------------------
*NOTE: the note played 1 octave higher are played on guitar II*
|----------------------------------------------------------
|----------------------------------------------------------
|---------------9-9-8~-------------------------------------
|------------------------------------5-6-------------------
|-2-2---2---2---7-7-6--2-2---2---2-2-----------------------
|-0-0---0---0----------0-0---0---0-0-3-4-------------------
fig B
"I'm sick and tired..."
|--------------------------------------
|--------------------------------------
|--------------------------------------
|--------------------------------------
|--------------------------------------
|-5--8-7-6------6-----6--3-4-5--8-7-6--
            "To keep myself in this state im in..."
|----------------------------------------------------------

Продолжаем грести бабос на ботах в Telegram.
Только в этот раз есть вариант автоматизировать это дело, привлекая рефералов. Вы можете заработать если »

|---------------------------------------------------------- |---------------------------------------------------------- |---------------------------------------------------------- |---------------------------------------------------------- |---6-----6--3-4-5-8-7-6----6-5-4-----4-3-2---------------- Fig C |-----------------------------|----------------------------- |-----------------------------|----------------------------- |-----------------------------|----------------------------- |------4-------3-----3-3-3--4-|-----4----------------------- |--2---2---5---1-----1-1-1--2-|-2---2---5---4-----4-4-4--5-- |--0-------3------------------|-0-------3---2-----2-2-2--3-- "People always try to change me..." |----------------------------|----------------------------- |----------------------------|----------------------------- |----------------------------|----------------------------- |----------------------------|----------------------------- |-----2-------1-----1-1-1--2-|-----2----------------------- |-0-------3------------------|-0-------3---2-----2-2-2--3-- back to fig A:

лекарство в аптеке
список лекарств

Видеонаблюдение контроль доступа

Проектирование. Монтаж. Установка систем видеонаблюдения под ключ. Звоните

seygal.ru








О сайтеАккордыХит-парадПоискУроки ФорумыИщу песню
ПрограммыСвежачок-сПодпискаСтатьи
Яндекс.Метрика