Табулатура Black Sabbath | Psychophobia гитара табулатуры уроки тексты песен Black Sabbath текст lyrics песня аккорды песни ноты нота электрогитара струна  
   А Б В Г Д Е Ж З И К Л М Н О П Р С Т У Ф Х Ч Ш Ы Э Ю Я       Разные песни
1-9 A B C D E F G H I J K L M N O P Q R S T U V W Y Z      Все исполнители in english

    



группа Black Sabbath, Табулатура песни Psychophobia

Продолжаем грести бабос на ботах в Telegram.
Только в этот раз есть вариант автоматизировать это дело, привлекая рефералов. Вы можете заработать если »

Группа: Black Sabbath - другие аккорды (243),   о группе (21 статей),   диски (20),   фотографии (152)
Табулатура песни: Psychophobia
Просмотров: 1400
Прислал: Sabbath (sabbath54@mail.ru)




    
from - Michael James 
Psychophobia
Black Sabbath - Cross Purposes (1994)

|---------------------------------------------------------------------------
|------------------------------------------------------------------------3--
|-------------------2-2------------------2------------------2-2--------0-2--
|-------------------2-2------------------2------------------2-2------0---0--
|-------------------0-0------------------0------------------0-0----2--------
|--2h3p2-0--2h3p2-0------2h3p2-0-2h3p2-0----2h3p2-0-2h3p2-0------3----------

my colors... 
|---------------------------------------------------------------
|-----------3--------------------------------3------------------
|--1--------2----2---------------------------2---2--(and so on)-
|--2--------0----2--------------2-4/64p2----0---2--------------
|--2-------------0-------------------------------0--------------

Продолжаем грести бабос на ботах в Telegram.
Только в этот раз есть вариант автоматизировать это дело, привлекая рефералов. Вы можете заработать если »

|--0-----------------3^--0-------------------------------------- |--------------------------------------------------------- |--------------------------------------------------------- |----------------------9-7-9---------------------9-7------ |----------------------9-7-9---------------------9-7------ |----------------------7-5-7---------------------7-5------ |--3p0-0-0-0-0-3p0-0-0-------3p0-0-0-0-0-3p0-0-0---------- |---------------------------------------------------------------- |-----------3---------------------------------------------------- |--1--------2-----2------2------2-----------------------9-7-9--- |--2--------0-----2------2------2-----------------------9-7-9--- |--2--------------0------0------0-----------------------7-5-7--- |--0-----------------3^-----3^-----3-3p0-0-0-0-0-3p0-0-0---------

www.rdrop.com/~mjames/sabbath/
найти лекарство
список лекарств






О сайтеАккордыХит-парадПоискУроки ФорумыИщу песню
ПрограммыСвежачок-сПодпискаСтатьи
Яндекс.Метрика