Табулатура Black Sabbath | Cross Of Thorns гитара табулатуры уроки тексты песен Black Sabbath текст lyrics песня аккорды песни ноты нота электрогитара струна  
   А Б В Г Д Е Ж З И К Л М Н О П Р С Т У Ф Х Ч Ш Ы Э Ю Я       Разные песни
1-9 A B C D E F G H I J K L M N O P Q R S T U V W Y Z      Все исполнители in english

    



группа Black Sabbath, Табулатура песни Cross Of Thorns

Продолжаем грести бабос на ботах в Telegram.
Только в этот раз есть вариант автоматизировать это дело, привлекая рефералов. Вы можете заработать если »

Группа: Black Sabbath - другие аккорды (243),   о группе (21 статей),   диски (20),   фотографии (152)
Табулатура песни: Cross Of Thorns
Просмотров: 1017
Прислал: Sabbath (sabbath54@mail.ru)




    
from - Michael James 
Cross Of Thorns
Black Sabbath - Cross Purposes (1994)

|---------------------------------------------------------------------------------
|---------------------------------------------------------------------------------
|---------------------------------------------------------------------------------
|------9-----9---9-----10-----10-10/1210-----9-----9---9-----10-----10-10/1210--
|----7-----7---------7------7---------------7-----7---------7------7--------------
|--0-----0-----0---0------0---------------0-----0-----0---0------0----------------

|----------------------------------------------------------------------------------
|----------------------------------------------------------------------------------
|--------------------------------------------------------12--5-5------------/9-7--
|--------------------------------------------------------12--5-5----5-5-5-5-/9-7--
|------7p5-5h7-----7p5-5h7-------7p5-5h7-----7p5-5h7-7--10--3-3----5-5-5-5-/7-5--
|---0---------0-0----------/7-0---------0-0------------------------3-3-3-3-------

  we gave you yesterday..
|-------------------------------------------------------------
|-------------------------------------------------------------
|-------------------------------------------------------------
|-5-5-5-5-5-5-5-5-5-5-5-2-4-5-4-5-7-5-4-5-5-5-5---------------
|-3-3-3-3-3-3-3-3-3-3-3-0-2-3-2-3-5-3-2-3-3-3-3--and so on.---
|-------------------------------------------------------------
  now all we is...
|------------------------------------------------------------------
|-1----7--8--------------------------------------------------------
|-2----8--9---------------8--9--11---------------------------------

Продолжаем грести бабос на ботах в Telegram.
Только в этот раз есть вариант автоматизировать это дело, привлекая рефералов. Вы можете заработать если »

|-2----9-10---9---9-9-----8--9--11------4-5-----5---4-5-7---12-11-- |-0-----------9---9-9-----6--7---9----2------2--3---2-3-5---10--9-- |-------------7---7-7---------------0------------------------------ |------------------------------------------------------------- |------------------------------------------------------------- |------------------------------------------------------------- |------4-5-----5------4---7------4-5-----5-------------------- |----2------2--3------2---5----2------2--3-------------------- |--0-------------------------0-------------------------------- |--^^^17--------------------------------------------------------------- |---------------------------------------------------------------------- |----------------11-12---------14-12--------11-11h12-11----14-12-11---- |-------------14------------14-----------14-------------14----------14- |----------14------------14-----------14------------------------------- |---------------------------------------------------------------------- |------------------------------------------------------------- |----12----------------------------------------solo in E------ |-/12--12-11-----7-------------------------------------------- |------------14----9-8-7---/9-7---787878---------------------- |------------------------10-------------10-------------------- |-------------------------------------------------------------

www.rdrop.com/~mjames/sabbath/
найти лекарство
список лекарств






О сайтеАккордыХит-парадПоискУроки ФорумыИщу песню
ПрограммыСвежачок-сПодпискаСтатьи
Яндекс.Метрика