Табулатура Black Sabbath | I Witness гитара табулатуры уроки тексты песен Black Sabbath текст lyrics песня аккорды песни ноты нота электрогитара струна  
   А Б В Г Д Е Ж З И К Л М Н О П Р С Т У Ф Х Ч Ш Ы Э Ю Я       Разные песни
1-9 A B C D E F G H I J K L M N O P Q R S T U V W Y Z      Все исполнители in english

    



группа Black Sabbath, Табулатура песни I Witness

Продолжаем грести бабос на ботах в Telegram.
Только в этот раз есть вариант автоматизировать это дело, привлекая рефералов. Вы можете заработать если »

Группа: Black Sabbath - другие аккорды (243),   о группе (21 статей),   диски (20),   фотографии (152)
Табулатура песни: I Witness
Просмотров: 1882
Прислал: Sabbath (sabbath54@mail.ru)




    
from - Michael James 
I Witness
Black Sabbath - Cross Purposes (1994)

|--3--4--5--6---7---8---9--10--11--12--13--14--15--15-----
|--6^-7^-8^-9^-10^-11^-12^-13^-14^-15^-16^-17^-18^-18^----
|---------------------------------------------------------
|---------------------------------------------------------
|---------------------------------------------------------
|---------------------------------------------------------
	  trill		trill        trill
|----------------------------------------------------------
|----------------------------------------------------------
|----------------------------------------------------------
|-----5--353535-----5--353535-----5--353535----------------
|----------------------------------------------------------
|-3-3-----------3-3-----------3-3-----------3--------------
|
|----------------------------------------------------------
|----------------------------------------------------------
|----------------------------------------------------------
|----------------------------------------------------------
|-----------1--------------1-------------1-----------------
|-3---1-2-3---1-3----1-2-3---1-3---1-2-3-------------------
across the desert...

Продолжаем грести бабос на ботах в Telegram.
Только в этот раз есть вариант автоматизировать это дело, привлекая рефералов. Вы можете заработать если »

|------------------------------------------------------------------ |------------------------------------------------------------------ |---------3----------------5--------------------------------------- |---5-5-5-3----------5-5-5-5--------------------------------------- |---5-5-5-1----------5-5-5-3-----------------------1-------------1- |-1/3-3-3----------1/3-3-3---------------3---1-2-3---1-3---1-2-3--- |-------------------------------------|------------------------------------ |-------------------------------------|------------------------------------ |-------------------------------------|------------------------------------ |--8--7--7--7-7-8-----8--7--7--7-7-8--|--8--7--7--7-7-8--10--9--9--9-9-10-- |--6--6--6--6-6-6-----6--6--6--6-6-6--|--6--6--6--6-6-6---8--8--8--8-8--8-- |-------------------------------------|------------------------------------ |----------------------------------------------------------------- |----------------------------------------------------------------- |----3--8--7--3--3--5-5--------------3--8--7--3--3---------------- |-5--3--8--7--3--3--5-5-----------5--3--8--7--3--3--6-6----------- |-5--1--6--5--1--1--3-3--3h5p3p0--5--1--6--5--1--1--6-6----------- |-3-------------------------------3-----------------4-4-----------

www.rdrop.com/~mjames/sabbath/
найти лекарство
список лекарств






О сайтеАккордыХит-парадПоискУроки ФорумыИщу песню
ПрограммыСвежачок-сПодпискаСтатьи
Яндекс.Метрика