Табулатура Black Sabbath | Buried Alive (4:47) гитара табулатуры уроки тексты песен Black Sabbath текст lyrics песня аккорды песни ноты нота электрогитара струна  
   А Б В Г Д Е Ж З И К Л М Н О П Р С Т У Ф Х Ч Ш Ы Э Ю Я       Разные песни
1-9 A B C D E F G H I J K L M N O P Q R S T U V W Y Z      Все исполнители in english

    



группа Black Sabbath, Табулатура песни Buried Alive (4:47)

Продолжаем грести бабос на ботах в Telegram.
Только в этот раз есть вариант автоматизировать это дело, привлекая рефералов. Вы можете заработать если »

Группа: Black Sabbath - другие аккорды (243),   о группе (21 статей),   диски (20),   фотографии (152)
Табулатура песни: Buried Alive (4:47)
Просмотров: 1304
Прислал: Sabbath (sabbath54@mail.ru)




    
from - Michael James 
Buried Alive
Black Sabbath - Dehumanizer (1992)

|--------------------------------------------------------------
|--------------------------------------------------------------
|--------------------------------------------------------------
|--------------------------------------------------------------
|-4-3-2-3-4-3-2-3-4-3-2-3-4-5----4-3-2-3-4-3-2-3-4-3-2-3-4-5---
|-2-1-0-1-2-1-0-1-2-1-0-1-2-3----2-1-0-1-2-1-0-1-2-1-0-1-2-3---

|----------------------------------------------------------------
|----------------------------------------------------------------
|-------------------------------------------------------------4--
|-------------------------------------------------------------4--
|-------6---7-------6-----7p6----------6---7-------6-------7p6---
|--4--4---4---4-4-4---4-4-----7p6-4--4---4---4-4-4---4-4-4-------

|-------------------------------------------------------------

Продолжаем грести бабос на ботах в Telegram.
Только в этот раз есть вариант автоматизировать это дело, привлекая рефералов. Вы можете заработать если »

|------------------------------------------------------------- |---9--------5----4--2----7----9------9-----5---4-2----7---9-- |---9--------5----4--2----7----9------9-----5---4-2----7---9-- |---7--------3----2--0----5----7------7-----3---2-0----5---7-- |------------------------------------------------------------- |----------------------------------- |----------------------------------- |--7--6--5---5----5-----5----------- |--7--6--5---3-4---3-5---3-7-------- |--5--4--3-----2-----3-----5-------- |-----------------------------------

www.rdrop.com/~mjames/sabbath/
поиск лекарств
список лекарств






О сайтеАккордыХит-парадПоискУроки ФорумыИщу песню
ПрограммыСвежачок-сПодпискаСтатьи
Яндекс.Метрика