Табулатура Black Sabbath | I (5:10) гитара табулатуры уроки тексты песен Black Sabbath текст lyrics песня аккорды песни ноты нота электрогитара струна  
   А Б В Г Д Е Ж З И К Л М Н О П Р С Т У Ф Х Ч Ш Ы Э Ю Я       Разные песни
1-9 A B C D E F G H I J K L M N O P Q R S T U V W Y Z      Все исполнители in english

    



группа Black Sabbath, Табулатура песни I (5:10)

Продолжаем грести бабос на ботах в Telegram.
Только в этот раз есть вариант автоматизировать это дело, привлекая рефералов. Вы можете заработать если »

Группа: Black Sabbath - другие аккорды (243),   о группе (21 статей),   диски (20),   фотографии (152)
Табулатура песни: I (5:10)
Просмотров: 1091
Прислал: Sabbath (sabbath54@mail.ru)




    
from - Michael James 
I
Black Sabbath - Dehumanizer (1992)
                                                      
|-------------------------------------------------------
|-------------------------------------------------------
|-------------------------------------------------------
|------5-----------------------------5------------------
|----5---7-------------------------5---7----------------
|-/7---------0----/7-5-3^-0-----/7--------0--/7-5-3^-0--

|---------------------------------------------------------------------
|---------------------------------------------------------------------
|---------------------------------------------------------------------
|--7h9---------7h9---------7h9-----7h10---------7h10---------10h12---
|--7-----------7-----------7-------7------------7------------10-------
|------0-0-0-0-----0-0-0-0-----0-0------0-0-0-0------0-0-0-0----------

|---------------------------------------------------------------------
|---------------------------------------------------------------------
|--9----7--9--5-----12/14--7-11--9----7--9--5-------------------------
|--9----7--9--5-----12/14--7-11--9----7--9--5-------------------------
|--7----5--7--3-----10/12--5--9--7----5--7--3-------------------------
|---------------------------------------------------------------------

|----------------------------------------------------------------------
|----------------------------------------------------------------------
|-----9-8----10-9------------------------9-8----10-9-------------------
|-----9-8----10-9------------------------9-8----10-9-------------------
|-----7-6-----8-7-----7-6-----7----------7-6-----8-7-----7-6-----7-----
|-0-0-----0-0-----0-0-----7-6---6-5--0-0-----0-0-----0-0-----7-6---5---
Pre-solo (w/ 1st fig.)
|---------------------15----------------17^--17p(15)--17^-----15-12-------
|-----------------15^----15-15^---------------------17--------------15----
|-14^-12~--------------------------------------------------------------12-
|-------------------------------------------------------------------------
|-------------------------------------------------------------------------
|-------------------------------------------------------------------------
solo:
|------------------------------------------12--------------
|(12)~~-------------------------12-----15^----15p12-15^----
|-12~~~---12--14-12-14----14-12-14^------------------------

Продолжаем грести бабос на ботах в Telegram.
Только в этот раз есть вариант автоматизировать это дело, привлекая рефералов. Вы можете заработать если »

|----------------------14---------------------------------- |---------------------------------------------------------- |---------------------------------------------------------- |-12-----------12-------15^-15------------------------------------ |----15p12-15^----15p12--------15--------------------------------- |---------------------------------14-12~-/----14^~~-12h14p12-14^- |----------------------------------------------------------------- |----------------------------------------------------------------- |----------------------------------------------------------------- |---------------------------------------------------------- |---------------------------------------------------------- |-------------------------12h14p12h14p12------------------- |-12h14p12h14p12h14p12h14----------------12h14p12h14------- |---------------------------------------------------------- |---------------------------------------------------------- |-------------------------------------------15^------------ |-------------------------------------12h15---------------- |-12h14p12h14p12-------------12h14p12---------------------- |----------------12h14p12h14------------------------------- |---------------------------------------------------------- |---------------------------------------------------------- |-12---------12-------------------------------------------- |----12-15^-----15p12-----15------------------------------- |---------------------14^----14-12h14p12h14-12----------12- |----------------------------------------------14p12h14---- |---------------------------------------------------------- |---------------------------------------------------------- |----------------------------------------------------------------- |-------------------------------------------------------------15^- |-14---------------------------------------12----14^14-14p12----- |-----12h14p12-12-------12------------12-14----14----------------- |-----------------12h14----10~---/14----------------------------- |----------------------------------------------------------------- |-12-------15^-15-12-17^-17-15------------17^--^------- |----15-12---------------------17^-17^p15------------------ |---------------------------------------------------------- |---------------------------------------------------------- |---------------------------------------------------------- |----------------------------------------------------------

www.rdrop.com/~mjames/sabbath/
искать в аптеке
список лекарств






О сайтеАккордыХит-парадПоискУроки ФорумыИщу песню
ПрограммыСвежачок-сПодпискаСтатьи
Яндекс.Метрика