Табулатура Black Sabbath | Too Late (6:54) гитара табулатуры уроки тексты песен Black Sabbath текст lyrics песня аккорды песни ноты нота электрогитара струна  
   А Б В Г Д Е Ж З И К Л М Н О П Р С Т У Ф Х Ч Ш Ы Э Ю Я       Разные песни
1-9 A B C D E F G H I J K L M N O P Q R S T U V W Y Z      Все исполнители in english

    



группа Black Sabbath, Табулатура песни Too Late (6:54)

Продолжаем грести бабос на ботах в Telegram.
Только в этот раз есть вариант автоматизировать это дело, привлекая рефералов. Вы можете заработать если »

Группа: Black Sabbath - другие аккорды (243),   о группе (21 статей),   диски (20),   фотографии (152)
Табулатура песни: Too Late (6:54)
Просмотров: 1392
Прислал: Sabbath (sabbath54@mail.ru)




    
from - Michael James 
Too Late
Black Sabbath - Dehumanizer (1992)

|-------3-----0---------------------------3-----0----------------------
|-----0---------0-------0-----0---------0---------0-------0-----0------
|---0-----------------4-----0---------0-----------------4-----0--------
|-2---------2-------5-----4-------4-2---------2-------5-----4-------4--
|-------------------------------5---------------------------------5----
|----------------------------------------------------------------------

|-------3-----0-------------------------0---------------0--------
|-----0---------0-------0-----0-------------0-------------0------
|---0-----------------4-----0---------2-------2-------0-----0----
|-2---------2-------5-----4---------2-----------2---2---------2--
|-------------------------------5-4---------------3--------------
|----------------------------------------------------------------

|---------0---------------0---------------0---------------0--------
|-------0---------------0---0-----------0---------------0---0------
|-----0---------------0-------0-------0---------------0-------0----
|---2---------------2-----------2---2---------------2-----------2--
|---------------5-4-----------------------------4-3----------------
|-0---------0-2-------------------0---------0-2--------------------

|---------0----------------------------------------------------
|-------0---------------0--------------------------------------
|-----0---------------2----------------------------------------
|---2---------------1------------------------------------------

Продолжаем грести бабос на ботах в Telegram.
Только в этот раз есть вариант автоматизировать это дело, привлекая рефералов. Вы можете заработать если »

|---------------3-2-------------------------------------------- |-0---------0-2-----------1---0-------------------------------- |-------------------------------------------------------------------- |-------------------------------------------------------------------- |-------------------------------------------------------------------- |-9--9-9---------------9--9-9---------------9--9-9---------------2--- |-7--7-7--2-4-5-4~~~~--7--7-7--2-4-4-3~~~~--7--7-7--2-4-3-2~~----2--- |-0--0-0--0-2----------0--0-0--0-2----------0--0-0--0-2-------1~-0--- |--------------------------------------------------------------------------- |--------------------------------------------------------------------------- |-12/14-2-2----------5-5---12/14-2-2----12/14-2-2----------5-5---12/14--10-- |-12/14-2-2----------5-5---12/14-2-2----12/14-2-2----------5-5---12/14--10-- |-10/12-0-0----0-3-0-------10/12-0-0----10/12-0-0----0-3-0-------10/12---8-- |--------------------------------------------------------------------------- |-------------------------------------------------------------------- |-------------------------------------------------------------------- |-9-7-9--------------9-7-9--------------9-7-9------------------------ |-9-7-9--------------9-7-9--------------9-7-9--------------2--------- |-7-5-7--2-4-5-4~~---7-5-7--2-4-4-3~~---7-5-7--2-4-3-2~----2--------- |--------0-2----------------0-2----------------0-2------1~-0---------

www.rdrop.com/~mjames/sabbath/
поиск лекарств
список лекарств






О сайтеАккордыХит-парадПоискУроки ФорумыИщу песню
ПрограммыСвежачок-сПодпискаСтатьи
Яндекс.Метрика