Табулатура Black Sabbath | Sins Of The Father (4:43) гитара табулатуры уроки тексты песен Black Sabbath текст lyrics песня аккорды песни ноты нота электрогитара струна  
   А Б В Г Д Е Ж З И К Л М Н О П Р С Т У Ф Х Ч Ш Ы Э Ю Я       Разные песни
1-9 A B C D E F G H I J K L M N O P Q R S T U V W Y Z      Все исполнители in english

    



группа Black Sabbath, Табулатура песни Sins Of The Father (4:43)

Продолжаем грести бабос на ботах в Telegram.
Только в этот раз есть вариант автоматизировать это дело, привлекая рефералов. Вы можете заработать если »

Группа: Black Sabbath - другие аккорды (243),   о группе (21 статей),   диски (20),   фотографии (152)
Табулатура песни: Sins Of The Father (4:43)
Просмотров: 1359
Прислал: Sabbath (sabbath54@mail.ru)




    

from - Michael James 
Sins Of The Father
Black Sabbath - Dehumanizer (1992)

|-----------------------------------------------------------------------
|------------------------------------------------------8---7-8-7h8p7----
|--7-------5-----4---5---7---------7-------5-----4-------------------7--
|--0-0-0-0-0-0-0-0-0-0-0-0-0-0-0-0-0-0-0-0-0-0-0-0-0-0-0-0-0-0-0--------
|-----------------------------------------------------------------------
|-----------------------------------------------------------------------
|----------------------------------------------------------
|----------------------------------------------------------
|--5---------7----7------5---------7----7/9--5-------------
|--5----5----7----7--2-4-5----5----7----7/9--5-------------
|--3----5----5----5--0-2-3----5----5----5/7--3-------------
|-------3---------------------3----------------------------
|----------------------------------------------------------
|----------------------------------------------------------
|---9--8---5--4---------------/9--8---5--4-----------------

Продолжаем грести бабос на ботах в Telegram.
Только в этот раз есть вариант автоматизировать это дело, привлекая рефералов. Вы можете заработать если »

|---9--8---5--4--/5--4--2-----/9--8---5--4----------------- |---7--6---3--2--/5--4--2-----/7--6---3--2----------------- |-0--------------/3--2--0-------------------0-0-0-0-------- |---------------------------------------------------------- |---------------------------------------------------------- |---------------------------------------------------------- |---------------------------------------------------------- |--------2-1---------5-4---------2-1-------------2-1------- |--0-2-3-------0-2-3-------0-2-3-------3-2-0-2-3----------- |---------------------------------------------------------- |---------------------------------------------------------- |------------------------9---9----------------------------- |-----9-----12-----9-----7-8-7h8p7------------------------- |-----7-----10-----7--------------------------------------- |-0-0---0-0----0-0---0-0-----------------------------------

www.rdrop.com/~mjames/sabbath/
найти лекарство
список лекарств

http://www.split777.ru

Инверторные Кондиционеры General Climate Купить Цена Дилера Монтаж Гарантия

split777.ru








О сайтеАккордыХит-парадПоискУроки ФорумыИщу песню
ПрограммыСвежачок-сПодпискаСтатьи
Яндекс.Метрика