Табулатура Black Sabbath | Time Machine (4:10) гитара табулатуры уроки тексты песен Black Sabbath текст lyrics песня аккорды песни ноты нота электрогитара струна  
   А Б В Г Д Е Ж З И К Л М Н О П Р С Т У Ф Х Ч Ш Ы Э Ю Я       Разные песни
1-9 A B C D E F G H I J K L M N O P Q R S T U V W Y Z      Все исполнители in english

    



группа Black Sabbath, Табулатура песни Time Machine (4:10)

Продолжаем грести бабос на ботах в Telegram.
Только в этот раз есть вариант автоматизировать это дело, привлекая рефералов. Вы можете заработать если »

Группа: Black Sabbath - другие аккорды (243),   о группе (21 статей),   диски (20),   фотографии (152)
Табулатура песни: Time Machine (4:10)
Просмотров: 1040
Прислал: Sabbath (sabbath54@mail.ru)




    

from - Michael James 
Time Machine
Black Sabbath - Dehumanizer (1992)

|-------------------------------------------------------
|-------------------------------------------------------
|----------5-----4--------------------------------------
|----------5-----4--------------------------------------
|----4-4-4-3-----2-p0-4-4-4-3--4-4-4-4-4-4-4-4-4-4-4-----
|--0h2-2-2------------2-2-2-1--2-2-2-2-2-2-2-2-2-2-2-----

|------------------------------------------------------------
|------------------------------------------------------------
|-------2-----------------4--2h4--------2--------------------
|-------2-----------------4--2h4--------2--------------------
|-4-4-4---4-4-4-4-4-4-4-4---------4-4-4---4-4-4-4-4-4--------
|-2-2-2---2-2-2-2-2-2-2-2---------2-2-2---2-2-2-2-2-2-0-0h1--

|-------------------------------------------------------
|-------------------------------------------------------
|-----------------2--2-2--5-4---------------------------
|-----------------2--2-2--5-4-5-------------------------
|-------4-3-2-0---0--0-0--3-2-5-------------------------
|-0-1-2-----------------------3-------------------------

|---------------------------------------------
|---------------------------------------------
|---------------9--9-9--8--8-8--7--7-7--6-----

Продолжаем грести бабос на ботах в Telegram.
Только в этот раз есть вариант автоматизировать это дело, привлекая рефералов. Вы можете заработать если »

|---------------9--9-9--8--8-8--7--7-7--6--7-- |-------4-3-2-0-7--7-7--6--6-6--5--5-5--4--7-- |-0-1-2------------------------------------5-- |--------------------------------------------------- |--------------------------------------------------- |------------------------------------2------5-4----- |------------------------------------2------5-4----- |-4---4-0-4-4-4-4-4-4-4-0-4---4-0-4--0---4--3-2----- |-2p0-2---2-2-2-2-2-2-2---2-0-2---2----0h2---------- |------------------------------------------------------------------------ |------------------------------------------------------------------------ |-9--9-9----------------7--7-7---------------6--6-6---------------2-2-4-- |-9--9-9---------7p6----7--7-7--------7p6----6--6-6--------7p6----2-2-4-- |-7--7-7-----5h7-----7--5--5-5----5h7-----7--4--4-4----5h7-----7--0-0-2-- |----------7--------------------7--------------------7------------------- |------------------------------------------------------- |------------------------------------------------------- |------------------------------------------------------- |--------------------------------4---------------------- |----7-6---6-5---5-4---4-3---3-2-4---------------------- |--0-----0-----0-----0-----0-----2----------------------

www.rdrop.com/~mjames/sabbath/
найти лекарство
список лекарств






О сайтеАккордыХит-парадПоискУроки ФорумыИщу песню
ПрограммыСвежачок-сПодпискаСтатьи
Яндекс.Метрика