Табулатура Black Sabbath | Letters From Earth (4:12) гитара табулатуры уроки тексты песен Black Sabbath текст lyrics песня аккорды песни ноты нота электрогитара струна  
   А Б В Г Д Е Ж З И К Л М Н О П Р С Т У Ф Х Ч Ш Ы Э Ю Я       Разные песни
1-9 A B C D E F G H I J K L M N O P Q R S T U V W Y Z      Все исполнители in english

    



группа Black Sabbath, Табулатура песни Letters From Earth (4:12)

Продолжаем грести бабос на ботах в Telegram.
Только в этот раз есть вариант автоматизировать это дело, привлекая рефералов. Вы можете заработать если »

Группа: Black Sabbath - другие аккорды (243),   о группе (21 статей),   диски (20),   фотографии (152)
Табулатура песни: Letters From Earth (4:12)
Просмотров: 1553
Прислал: Sabbath (sabbath54@mail.ru)




    
from - Michael James 
Letters From Earth
Black Sabbath - Dehumanizer (1992)

|---------------------0---------------------------------------
|-------------------1-----1-----------------------------------
|---------/7-6----2---------2-------0-----0-------------------
|-2-3-5-7-/7-6--3-------------0---2-----0---------------------
|-2-4-5-7-/5-4------------------3-----2-----1~----------------
|-0-2-3-5-----------------------------------------------------

|------------------------------------------------------------
|------------------------------------------------------------
|------------------------------------------------------------
|-2--4--5------------------2--4--5----------2---0----------
|-2--4--5------------------2--4--5------------2---1--------
|-0--2--3--0-0-0-0-0-0-0-0-0--2--3--0-0-0-0----------------

*
|------------------------------------------------------------
|------------------------------------------------------------
|---------9-9------------9------------9-9------------7-------
|-2-54-2-9-9----2-54-2-9----2-54-2-9-9---2--54-2-5-7-----
|-2-54-2-7-7----2-54-2-7----2-54-2-7-7---2--54-2---5-----
|-0-32-0--------0-32-0------0-32-0-------0--32-0---------

|--------------------------------------------------------------------
|--------------------------------------------------------------------
|--------------------------------------------------------------------
|-------4-5-7-----2--4--5------------------2--4--5----------2---0----
|-7-6-7-----------2--4--5------------------2--4--5------------2---1--
|-------------6^--0--2--3--0-0-0-0-0-0-0-0-0--2--3--0-0-0-0----------
  
  what if i send...
|------------------------------------------------------------
|------------------------------------------------------------
|-4-------5---5-5/7-4----5----4-----5--5-5/7-4---2-4-5/7-4-5-

Продолжаем грести бабос на ботах в Telegram.
Только в этот раз есть вариант автоматизировать это дело, привлекая рефералов. Вы можете заработать если »

|-4-------5---5-5/7-4----5----4-----5--5-5/7-4---2-4-5/7-4-5- |-2-------3---3-3/5-2----3----2-----3--3-3/5-2---0-2-3/5-2-3- |------------------------------------------------------------ earth... |---------------------------------------------------------------- |-------------------------8-------------------------------------- |-9-9---------9-9---------7-----9-9--------9-9--------12-11------ |-9-9---------9-9---------5-----9-9--------9-9--------12-11------ |-7-7---------7-7--7-9-10-------7-7--------7-7--------10--9------ |-----0-0-0-0----------------------0-0-0-0----0-0-0-0------------ this part is a little tricky. It is meant to be played by 2 guitars or more... |-----------0-----------0----------------------------------2---------------------- |-----1p0------/6--1---3-----5-6-5--------------5-6-------3-3-----5-6-5---------- |---------2----/5--2---2---7-------7-5--4-----7-----5----2---2-7-------7-5-4---- |---2----------/7--3---0---0-2-3-2-0-------7--0-2-3----3--0-----0-2-3-2-0-----7-- |-0-----------------------------------3--2--0--------3--------------------3-2-0-- |-------------------------------------------------------1------------------------- H H H H |----------------------------------------------------------------------- |----------------------------------------------------------------------- |-5-7-4-5---2---1~---1h2-------------------2---1~---1h2----------------- |-5-7-4-5----------------2-1-0---0----------------------2-1-0---0------- |-3-5-2-3-0---0----0-----------3---3-2-1-0---0----0-----------3---2-1~-- |----------------------------------------------------------------------- |------------------|--------------------- |------------------|--------------------- |------------------|--------------------- |-2-2------2-2-----|--------------------- |-2-2------2-2-----|--------------------- |-0-0------0-0-----|-(back to *)---------

www.rdrop.com/~mjames/sabbath/
найти лекарство
список лекарств






О сайтеАккордыХит-парадПоискУроки ФорумыИщу песню
ПрограммыСвежачок-сПодпискаСтатьи
Яндекс.Метрика