Табулатура Black Sabbath | Tv Crimes (3:58) гитара табулатуры уроки тексты песен Black Sabbath текст lyrics песня аккорды песни ноты нота электрогитара струна  
   А Б В Г Д Е Ж З И К Л М Н О П Р С Т У Ф Х Ч Ш Ы Э Ю Я       Разные песни
1-9 A B C D E F G H I J K L M N O P Q R S T U V W Y Z      Все исполнители in english

    



группа Black Sabbath, Табулатура песни Tv Crimes (3:58)

Продолжаем грести бабос на ботах в Telegram.
Только в этот раз есть вариант автоматизировать это дело, привлекая рефералов. Вы можете заработать если »

Группа: Black Sabbath - другие аккорды (243),   о группе (21 статей),   диски (20),   фотографии (152)
Табулатура песни: Tv Crimes (3:58)
Просмотров: 1190
Прислал: Sabbath (sabbath54@mail.ru)




    

from - Michael James 
TV Crimes
Black Sabbath - Dehumanizer (1992)

|------------------------------------------------------------------||------||
|------------------------------------------------------------------||------||
|---------------------------------------------------------5--------||--7---||
|--5--------8--------4----------4--5-------8-------4------5--------||--7---||
|--5--------8--------4----------4--5-------8-------4------3--3p0---||--5---||
|--3--------6--------2--------0h2--3-------6-------2---------------||------||
|---------------------------------------------------------------
|---------------------------------------------------------------
|---------------------------------------------------------------
|---------------------------------------------------------------
|-----1-----1-----1-----1-------------1-----1-------------------
|-1-3---3-3---3-3---3-3---3-1-3---1-3---3-3---3-3-3-3-3-3-3-3---
|--------------------------------------------------------------------------
|--------------------------------------------------------------------------
|----------3------------3---------3--------------3------------3-----8-7--3-
|-------0--3-----3------3---------3-----------0--3-----3------3-----8-7--3-
|---1-3----1-----3------1---------1-------1-3----1-----3------1-----6-5--1-
|-3--------------1--3-3---3-3-3-3---3-3-3--------------1--3-3---3-3--------
holy father...
|------------------------------------------------------------
|------------------------------------------------------------
|------3---5---7---5-----3-------3-------3---5---7---8-------

Продолжаем грести бабос на ботах в Telegram.
Только в этот раз есть вариант автоматизировать это дело, привлекая рефералов. Вы можете заработать если »

|--5---3---5---7---5-----3---3---3---5---3---5---7---8------- |--5---1---3---5---3-----1---3---1---5---1---3---5---6------- |--3-------------------------1-------3----------------------- |------------------------------------------------------------ |------------------------------------------------------------ |------------------------------------------------------------ |------------------------------------------------------------ |-5-4-3---3-------1---0--------/5-4-3---3-------1---0-------- |-------6---6-5-3---3---1---3---------6---6-5-3---3---1---3-- w/ solo |---------------------------------||-------------------------------------------- |---------------------------------||-------------------------------------------- |--9------7-------9----------7----||--5---4---5--------------------------------- |--9------7---7---9------7---7----||--5---4---5---4-5-7-5-7-8-9-11-12-11-12----- |--7------5---7---7------7---5----||--3---2---3---2-3-5-3-5-6-7--9-10--9-10-12-- |-------------5----------5--------||----------------------------------------10-- |--------------------------------------------------------------- |--------------------------------------------------------------- |--------------------------------------------------------------- |--------------------------------------------------------------- |-----1-----1-----1-----1-------------1-----1------------------- |-1-3---3-3---3-3---3-3---3-1-3---1-3---3-3---3-3-3-3-3-3-3-3---

www.rdrop.com/~mjames/sabbath/
поиск лекарств
список лекарств

Отвал для снега на погрузчик

Аналитика, цены, новости рынка. Погрузчик

мобильная-рампа.рф








О сайтеАккордыХит-парадПоискУроки ФорумыИщу песню
ПрограммыСвежачок-сПодпискаСтатьи
Яндекс.Метрика