Табулатура Black Sabbath | After All (the Dead) (5:37) гитара табулатуры уроки тексты песен Black Sabbath текст lyrics песня аккорды песни ноты нота электрогитара струна  
   А Б В Г Д Е Ж З И К Л М Н О П Р С Т У Ф Х Ч Ш Ы Э Ю Я       Разные песни
1-9 A B C D E F G H I J K L M N O P Q R S T U V W Y Z      Все исполнители in english

    



группа Black Sabbath, Табулатура песни After All (the Dead) (5:37)

Продолжаем грести бабос на ботах в Telegram.
Только в этот раз есть вариант автоматизировать это дело, привлекая рефералов. Вы можете заработать если »

Группа: Black Sabbath - другие аккорды (243),   о группе (21 статей),   диски (20),   фотографии (152)
Табулатура песни: After All (the Dead) (5:37)
Просмотров: 886
Прислал: Sabbath (sabbath54@mail.ru)




    
from - Michael James 
After All (The Dead)
Black Sabbath - Dehumanizer

|-------------------------------------------------------------------
|-------------------------------------------------------------------
|-------------------------------------------------------------------
|-------------------------------------------------------------------
|---2-1---3---2-----2-1---/5-4-3-2---2-1---3---2---3-2-1------------
|-0-----0---------0-----0----------0-----0---------------2---3---0--

what do you..
|-----------------------------------------------------------
|-----------------------------------------------------------
|-9-----------------------5-----9----------------------5----
|-9-----------5--4--3-----5-----9----------5--4--3-----5----
|-7-----------5--4--3-----3-----7----------5--4--3-----3----
|-0-----------3--2--1-----------0----------3--2--1----------

|-------------------------------------------------------
|-------------------------------------------------------
|-9-------------------------9-------------7/8-----------
|-9-------------------------9--------87--5/6-----------
|-7------6h7p6h7p6h7p6h7----7--------65----------------
|-0-------------------------0---------------------------

|-------------------------------------------------------------------
|-------------------------------------------------------------------
|-------------------------------------------------------------------
|----------------------0-------------------------------0------------

Продолжаем грести бабос на ботах в Telegram.
Только в этот раз есть вариант автоматизировать это дело, привлекая рефералов. Вы можете заработать если »

|--------------------2-------3-2---------------------2-------3-2---- |--7-0-0-6-0-0-5-0h3-----3-1-----0-7-0-0-6-0-0-5-0h3-----3-1-----0-- |------------------------------------------------------- |------------------------------------------------------- |--------------------6---------------------------------- |--6------4/6-7------6------7---9----------------------- |--6------4/6-7------4------7---9----------------------- |--4------2/4-5-------------5---7----------------------- |----------------------------------------------------------- |----------------------------------------------------------- |--9-------5------------------9-------3------------------9-- |--9-------5------------------9-------3------------------9-- |--7-------3---------2---1----7-------1---------2---1----7-- |--------------0-2h3---3---2--------------0-2h3---3---2----- |------------------------------------------------------------ |------------------------------------------------------------ |-9---12-11-10----------------------------------------------- |-9---12-11-10----------------------------------------------- |-7---10--9--8-------------5---5-4~~------------------------- |--------------------0-2h3---3-------------------------------

www.rdrop.com/~mjames/sabbath/
искать в аптеке
список лекарств






О сайтеАккордыХит-парадПоискУроки ФорумыИщу песню
ПрограммыСвежачок-сПодпискаСтатьи
Яндекс.Метрика