Табулатура Black Sabbath | Master Of Insanity  (2) гитара табулатуры уроки тексты песен Black Sabbath текст lyrics песня аккорды песни ноты нота электрогитара струна  
   А Б В Г Д Е Ж З И К Л М Н О П Р С Т У Ф Х Ч Ш Ы Э Ю Я       Разные песни
1-9 A B C D E F G H I J K L M N O P Q R S T U V W Y Z      Все исполнители in english

    



группа Black Sabbath, Табулатура песни Master Of Insanity (2)

Работа в Европе для граждан РФ, Украины, СНГ

  • минимальная зарплата $500.
  • виза и контракт на полгода, возможно продление
  • проживание оплачивает работодатель
  • нужен только загранпаспорт
  • оформление 190 €
  • данное предложение - отличная возможность эмигрировать в Европу и закрепиться здесь навсегда.

  • Мы свяжемся с Вами по WhatsApp или Viber и ответим на любые вопросы.
    на нашем сайте можно почитать подробнее »

    Группа: Black Sabbath - другие аккорды (243),   о группе (21 статей),   диски (20),   фотографии (152)
    Табулатура песни: Master Of Insanity (2)
    Просмотров: 1473
    Прислал: Sabbath (sabbath54@mail.ru)




        
    
    from - Michael James 
    Master Of Insanity
    Black Sabbath - Dehumanizer (1992)
    
    |------------------------------------------||--------
    |-----------------------------------repeat-||--------
    |------------------------------------------||-9------
    |-----------------3-----6-----9-8-6--------||-9------
    |-7-----4-------2-----5-----8-------8------||-7------
    |---6-0---3-0-1-----4-----7----------------||-------- 
    
    |-----------------------------------------------------------------
    |-----------------------------------------------------------------
    |-9---------------5---------------0-----0-----0---0-----0---------
    |-9------8---9----5------4---5------4-----4---------4-----4-------
    |-7-7777-7---7--0-3-3333-3---3-/5-----5-----5---4-----3-----0-----
    |-----------------------------------------------------------------
    
    |----------------------------------------------------------
    |----------------------------------------------------------
    |--------------------------------------5-------------------
    |--------------------------------------5-------------------
    |-----7-7---7-7-7---------7-7---7-7-7--3------7-7---7-7-7--
    |-0-0-----0-----------0-0-----0-----------0-0-----0--------
    
    
    Узнай ВСЕ о своем друге в ВК или FB
    --------------- --------------- --------------- --9---8---5---- --9---8---5---- --7---6---3---- "your freedom is gone..." |---------------------------------------------------------- |-------0-----5--5-----5--6-5----7--7---------------------- |-----5---5---5----5---5------5-7----7-------------------- |---7-------7-7------7-7---------7------7------------------ |-0--------------------8---------9--------9---------------- |---------------------------------------------------------- |---------------------------------------------------------- |---------------------------------------------------------- |---------------------------------------------------------- |---------------------------------------------------------- |------9--10-----------/9--7--5-4---------9--10---------- |-7--------------5--7--------------7-5-7-------------5--7--

    www.rdrop.com/~mjames/sabbath/
    поиск лекарств
    список лекарств






    О сайтеАккордыХит-парадПоискУроки ФорумыИщу песню
    ПрограммыСвежачок-сПодпискаСтатьи
    Яндекс.Метрика