Табулатура Black Sabbath | Feels Good To Me гитара табулатуры уроки тексты песен Black Sabbath текст lyrics песня аккорды песни ноты нота электрогитара струна  
   А Б В Г Д Е Ж З И К Л М Н О П Р С Т У Ф Х Ч Ш Ы Э Ю Я       Разные песни
1-9 A B C D E F G H I J K L M N O P Q R S T U V W Y Z      Все исполнители in english

    



группа Black Sabbath, Табулатура песни Feels Good To Me

Продолжаем грести бабос на ботах в Telegram.
Только в этот раз есть вариант автоматизировать это дело, привлекая рефералов. Вы можете заработать если »

Группа: Black Sabbath - другие аккорды (243),   о группе (21 статей),   диски (20),   фотографии (152)
Табулатура песни: Feels Good To Me
Просмотров: 906
Прислал: Sabbath (sabbath54@mail.ru)




    

from - Michael James 
Feels Good To Me
Black Sabbath - TYR (1990)
"the chapter is opened..."
|-------0-------0------0-----------------------------------
|-----3---3-------3-----(3)-------3-1----------0----1------
|---2-------2--------2----------0----(0)-----2----2--(2)---
|-0---------------------------2------------2---------------
|---------------------------3------------0-----------------
|----------------------------------------------------------
"the writing say many things.."
|-------0-------0------0-----------------------------------
|-----3---3-------3-----(3)-------3-1----------0-------0---
|---2-------2--------2----------0----(0)-----2-------------
|-0---------------------------2------------2---------0-----
|---------------------------3------------0---------2-------
|------------------------------------------------3---------
"where can we run to now..."
|-------0-------0------0-----------------------------------
|-----3---3-------3-----(3)-------3-1----------0----1------
|---2-------2--------2----------0-----0------2----2--------
|-0---------------------------2------------2---------------
|---------------------------3------------0-----------------
|----------------------------------------------------------
"when its lost..."
|-------0-------0------0----------------------(0-----------
|-----3---3-------3-----(3)-------3-1----(1---)3-[strum]---
|---2-------2--------2----------0-----0--)2---(2-----------
|-0---------------------------2----------(2---)0-----------
|---------------------------3------------)0----------------
|----------------------------------------------------------
"the world is turning..."

Продолжаем грести бабос на ботах в Telegram.
Только в этот раз есть вариант автоматизировать это дело, привлекая рефералов. Вы можете заработать если »

|-----------------------------0-------------------------------0------- |---------3-------3---------0---0-8-------3-------3---------0---0-8--- |-----------0-------0-----5---------5-------0-------0-----5---------5- |-------2-------0-------7---------------2-------0-------7------------- |-0-2-3-------2-------0---------------3-------2-------0--------------- |--------------------------------------------------------------------- |-------0------------------ |-----3---3-----3---3------ |---2-------------0-0------ |-0-----------2-----0------ |-----------3-------2------ |-------------------3------ |---------------------3--3------------------------3---------- |---------------------3--3------------------------3---------- |---------------------0--0------------------------0---------- |---------------------0--0------------------------0---------- |-----------3---------x--x--------------3---------x--3--2---- |-5--5--3-5---5-(0)--3--3----5--5--3-5---5-(0)--3--------3-back to 1st progression |---------------------------------------------------------- |---------------------------------------------------------- |---14---1716--/149-----------97/9-----14--------------- |14-------------------------------------------/14-12-/14--- |---12---1514--/127-----------75/7-(0)-12--------------- |12-------------------------------------------/12-10-/12--- |------------------------------------5---------------------- |--------------------------------8^----8-5------------------ |------------------------------------------7^-7^--7p5--7p5-- |----10-9--10/12-/14---------------------------------7----7- |-12-----------------12-12--------------------------------- |----------------------------------------------------------- That's all I can give you of the solo, the rest in based in A.

www.rdrop.com/~mjames/sabbath/
найти лекарство
список лекарств






О сайтеАккордыХит-парадПоискУроки ФорумыИщу песню
ПрограммыСвежачок-сПодпискаСтатьи
Яндекс.Метрика