Табулатура Black Sabbath | Valhalla гитара табулатуры уроки тексты песен Black Sabbath текст lyrics песня аккорды песни ноты нота электрогитара струна  
   А Б В Г Д Е Ж З И К Л М Н О П Р С Т У Ф Х Ч Ш Ы Э Ю Я       Разные песни
1-9 A B C D E F G H I J K L M N O P Q R S T U V W Y Z      Все исполнители in english

    



группа Black Sabbath, Табулатура песни Valhalla

Продолжаем грести бабос на ботах в Telegram.
Только в этот раз есть вариант автоматизировать это дело, привлекая рефералов. Вы можете заработать если »

Группа: Black Sabbath - другие аккорды (243),   о группе (21 статей),   диски (20),   фотографии (152)
Табулатура песни: Valhalla
Просмотров: 1109
Прислал: Sabbath (sabbath54@mail.ru)




    
from - Michael James 
Valhalla
Black Sabbath - TYR (1990)
|--------------------------------------------------
|--------------------------------------------------
|---------7---------7-----7---------7-----7--5--4--
|---------7---------7-----7---------7-----7--5--4--
|-0-0-0-0---0-0-0-0---0-0---0-0-0-0---0-0----3--2--
|--------------------------------------------------
|----------------------------------------------------------
|----------------------------------------------------------
|-2---------7---------7-----7---------7-----7--------------
|-2---------7---------7-----7---------7-----7--------------
|-0-0-0-0-0---0-0-0-0---0-0---0-0-0-0---0-0---------5------
|---------------------------------------------5-7-8---8-7--
  "When the winds of Valhalla run cold..."
|---------------------------------------------------------------
|---------2-------------------------2-------------------------2-

Продолжаем грести бабос на ботах в Telegram.
Только в этот раз есть вариант автоматизировать это дело, привлекая рефералов. Вы можете заработать если »

|---------2--4----------------------2--4----------------------2- |---------2--5----------------------2--5----------------------2- |-0-0-0-0-0--5---3---2------0-0-0-0-0--5---3--2--0----0-0-0-0-0- |------------3-----------3-------------3------------3----------- "raise your hands..." |-------8-----7-----5----8----10---- |-7----7--7-----7--------8----10---- |-7-7-------7-----7---7--7----11---- |-7----------------------9----12---- |-5---------------------------------x 2 |----------------------------------- Sorry, no solo

www.rdrop.com/~mjames/sabbath/
лекарство в аптеке
список лекарств






О сайтеАккордыХит-парадПоискУроки ФорумыИщу песню
ПрограммыСвежачок-сПодпискаСтатьи
Яндекс.Метрика