Табулатура Black Sabbath | Odin`s Court гитара табулатуры уроки тексты песен Black Sabbath текст lyrics песня аккорды песни ноты нота электрогитара струна  
   А Б В Г Д Е Ж З И К Л М Н О П Р С Т У Ф Х Ч Ш Ы Э Ю Я       Разные песни
1-9 A B C D E F G H I J K L M N O P Q R S T U V W Y Z      Все исполнители in english

    



группа Black Sabbath, Табулатура песни Odin`s Court

Продолжаем грести бабос на ботах в Telegram.
Только в этот раз есть вариант автоматизировать это дело, привлекая рефералов. Вы можете заработать если »

Группа: Black Sabbath - другие аккорды (243),   о группе (21 статей),   диски (20),   фотографии (152)
Табулатура песни: Odin`s Court
Просмотров: 1269
Прислал: Sabbath (sabbath54@mail.ru)




    
from - Michael James 
Odin's Court
Black Sabbath - TYR (1990)
guitar I
|----------------------------------------------------------0-|
|----------------------------------------------------------0-|
|------------------------5/7-------------------------------0-|
|-----5-7/9----75-----5--------9-7-----5-7/9----75-----5-5-|
|---7--------7-------7--------7-------7--------7-------7---7-|
|-0----------------0----------------0----------------0-------|
|guitar II                                                   |  
|--------0-----0---------0-----3p2--------0-----0----------0-|
|-----0----0---3/5-----0---0---0--------0---0---3/5------0-0-|
|---0--------0-------0-------0--------0-------0--------0---0-|
|-2----------------2----------------2----------------2-----2-|
|------------------------------------------------------------|
|------------------------------------------------------------|
Electric Fill:
|--------------------------------
|-15^15-12-15^-15^-15^15-12-15^--
|--------------------------------
|--------------------------------
|--------------------------------

Продолжаем грести бабос на ботах в Telegram.
Только в этот раз есть вариант автоматизировать это дело, привлекая рефералов. Вы можете заработать если »

|-------------------------------- |--0---0-------0----------------0--------- |-10--10---7---7----5----5--5-----0------- |--9-------7---7----4----5--5-------5----- |-12-------9--------5----7--7---------7--- |----------------------------------------- |down-up---------------------------------- Fills: |---------------------------------^17----------------------| |-^15--12------------------------------17^---15^-----------| |----------12-/14-14---------------------------------------| |----------------------------------------------------------| |----------------------------------------------------------| |----------------------------------------------------------| |----12----------------------------------------------------| |-12----12-15^-15^15p12-15^m-------------------------------| |---------------------------------^14---12-----------------| |----------------------------------------------------------| |--------------------------------------------12-/-14-------| |----------------------------------------------------------| Go into Valhalla.

www.rdrop.com/~mjames/sabbath/
поиск лекарств
список лекарств






О сайтеАккордыХит-парадПоискУроки ФорумыИщу песню
ПрограммыСвежачок-сПодпискаСтатьи
Яндекс.Метрика