Табулатура Black Sabbath | The Sabbath Stones гитара табулатуры уроки тексты песен Black Sabbath текст lyrics песня аккорды песни ноты нота электрогитара струна  
   А Б В Г Д Е Ж З И К Л М Н О П Р С Т У Ф Х Ч Ш Ы Э Ю Я       Разные песни
1-9 A B C D E F G H I J K L M N O P Q R S T U V W Y Z      Все исполнители in english

    



группа Black Sabbath, Табулатура песни The Sabbath Stones

Продолжаем грести бабос на ботах в Telegram.
Только в этот раз есть вариант автоматизировать это дело, привлекая рефералов. Вы можете заработать если »

Группа: Black Sabbath - другие аккорды (243),   о группе (21 статей),   диски (20),   фотографии (152)
Табулатура песни: The Sabbath Stones
Просмотров: 785
Прислал: Sabbath (sabbath54@mail.ru)




    
from - Michael James 
The Sabbath Stones
Black Sabbath - TYR (1990)
"Fire & water, wind & rain..."
|----------------------------------------------------------
|----------------------------------------------------------
|-9--9--------10--9--9---------9--9--------10--9--9--------
|-9--9--------10--9--9---------9--9--------10--9--9--------
|-7--7---------8--7--7---------7--7---------8--7--7--------
|----------------------------------------------------------

|---------------------------------------------------------------
|---------------------------------------------------------------
|---------------9--9------------10--9--9------------------------
|---------------9--9------------10--9--9------------------------
|-----7-5-------7--7-------------8--7--7------------7-5---------
|-5h7-----7-6~-------\-00000000--------\-0000-5h7-----7-6~----

|----------------------0---2------------------------0---2-3-
|-------0------------1---3---3-------0------------1---3-----
|-----0---0--------0---------------0---0--------0-----------
|---2------------2---------------2------------2-------------
|------------2/3--------------------------2/3---------------
|-0----------------------------0----------------------------
"the time..."
|----------------------------------------------------------
|-----5-------4-5---(strum)---------3-----3----------------
|---4---4h5-5-----5-0-------------4---4-----4--------------
|-------------------2-------------------------4------------
|-------------------2--------------------------------------
|-0-----------------0-------0-2-3-------2-------0----------
"reciever of light"
|----------------------------------------------------------
|----------------------------------------------------------
|----------------------------------------------------------

Продолжаем грести бабос на ботах в Telegram.
Только в этот раз есть вариант автоматизировать это дело, привлекая рефералов. Вы можете заработать если »

|--9-9-9-9-9--7/9-----7----5-5-5-5-5--4-5------------------ |--7-7-7-7-7--5/7-----5----3-3-3-3-3--2-3-3-2---2-0-------- |-----------------5/7-------------------------3-----3-2-0-- *double time* |---------------------------------------------------------- |---------------------------------------------------------- |-9------7------5------------------------------------------ |-9------7------5------5--4-----4-------------------------- |-7------5------3------3--2--5--2--5--4--2----------------- |----------------------------3-----3--2--0----------------- |---------------------------------------------------------- |---------------------------------------------------------- |---------------------------------------------------------- |------------7-------------------------7-9-7--------------- |-----7-9-10---10-9-10-9-7------7-9-10-------10-9-7-------- |-0-0-----------------------0-0---------------------------- |---------------------------------------------------------- |---------------------------------------------------------- |---------------------------------------------------------- |------------7-------------10-9-7-9-7---------7------------ |-----7-9-10---10-9-10-9-7------------10-9-10---10-9-7----- |-0-0------------------------------------------------------ w/ humming... |---------------------------------------------------------- |---------------------------------------------------------- |---------------------------------------------------------- |------------------7------7-9-/9-7------------------------- |-7----9-10-9---10---10------------10-9-7----9-10-9-and so on... |----------------------------------------------------------

www.rdrop.com/~mjames/sabbath/
искать в аптеке
список лекарств






О сайтеАккордыХит-парадПоискУроки ФорумыИщу песню
ПрограммыСвежачок-сПодпискаСтатьи
Яндекс.Метрика