Табулатура Black Sabbath | Jerusalem гитара табулатуры уроки тексты песен Black Sabbath текст lyrics песня аккорды песни ноты нота электрогитара струна  
   А Б В Г Д Е Ж З И К Л М Н О П Р С Т У Ф Х Ч Ш Ы Э Ю Я       Разные песни
1-9 A B C D E F G H I J K L M N O P Q R S T U V W Y Z      Все исполнители in english

    



группа Black Sabbath, Табулатура песни Jerusalem

Работа в Европе для граждан РФ, Украины, СНГ

  • минимальная зарплата $500.
  • виза и контракт на полгода, возможно продление
  • проживание оплачивает работодатель
  • нужен только загранпаспорт
  • оформление 190 €
  • данное предложение - отличная возможность эмигрировать в Европу и закрепиться здесь навсегда.

  • Мы свяжемся с Вами по WhatsApp или Viber и ответим на любые вопросы.
    на нашем сайте можно почитать подробнее »

    Группа: Black Sabbath - другие аккорды (243),   о группе (21 статей),   диски (20),   фотографии (152)
    Табулатура песни: Jerusalem
    Просмотров: 1381
    Прислал: Sabbath (sabbath54@mail.ru)




        
    from - Michael James 
    Jerusalem
    Black Sabbath - TYR (1990)
    Fig A
    |------------------------------------------
    |------------------------------------------
    |------------------------------------------
    |------------------------------------------
    |-7-7-7-7-7--7-7-7-7-7---------------------
    |-5-5-5-5-5--5-5-5-5-5--5-7-8--7-5-3-------
    FigB
    |------------------------------------------------------------------
    |------------------------------------------------------------------
    |-------(trill)-------------------------------(trill)--------------
    |---7-------------------------------------7------------------------
    |-----7-676767----6-7676---6-7676---6-------7-676767---------------
    |-5-------------8--------8--------8---7-5------------5-7-8--7-5-3--
    Fig C
    VERSE:
    |----------------------------------------------------------
    |----------------------------------------------------------
    |----------------------------------------------------------
    |-7/9-9-9-9-----7-9-----9--9-----7-9----------9--9--7-9---
    |-5/7-7-7-7-----5-7-----7--7-----5-7----------7--7--5-7---
    |-----------0-0--------------0-0------0--0-0-0-------------
    VERSE CONT.:
    |----------------------------------------------------------
    |----------------------------------------------------------
    |------------76----------9--7-9-----9--9-----7-9----------
    
    Узнай ВСЕ о своем друге в ВК или FB
    |-5--/9--7---54----------7--5-7-----7--7-----5-7--and so on.. |-3--/7--5-------0--0-0-0--------0-0------0-0-------------- |---------------------------------------------------------- FigD "a thousond..." |---------0--------------0-------3p2-2-----2-----3-----2----- |-------1---1--------------3-----3---3-------3---3-3---3-3--- |-----0-------0--------2-----2---2---2-2-------2-2---2-2---2- |---2-----------2--------------0-0---0-----------0-----0----- |-3----------------2----------------------------------------- |------------------------------------------------------------ "Where will you turn if it all goes wrong" |---------------------------------------- |---------------------------------------- |---------------------------------------- |---------------------------------------- |-7-7-7-7-7--7-7-7-7-7------------------- |-5-5-5-5-5--5-5-5-5-5--5-7-8--7-5-3-----(also play Fig B) Fig E "Everybody knows your name" *2nd & 4th time* |-3---2--||-------------------------------||--------------- |-3---3--||-6------6--6----------10----8--||-12---10------- |-2---2--||-7------7--7----------10----9--||-12---11------- |-0---0--||-8------8--8----------10---10--||-12---12------- |--------||-8-----------------------------||--------------- |--------||-6--6-6------------------------||---------------Back to Fig C forsolo

    www.rdrop.com/~mjames/sabbath/
    искать в аптеке
    список лекарств






    О сайтеАккордыХит-парадПоискУроки ФорумыИщу песню
    ПрограммыСвежачок-сПодпискаСтатьи
    Яндекс.Метрика